Mexico Ligger I Spanien

Nephew

 Nephew
Tom: G#
		
Tabbed by: Bee-Ay
Email: L*

Tuning: Standard.

Ladies' night er for vandaler, og hvaler  ;)


Strengen er dæmpet meget stille. Intro:

e|----------------------------------------------------------------------|
B|----------------------------------------------------------------------|
G|*--------------------------------------------------------------------*|
D|*-3--5-5-5-5-5-5-5-5-5-5-5-5-5-5-5--6-6-6-6-6-6-6--8-8-8-8-8-8/3-3-3-*|
A|----------------------------------------------------------------------|
E|----------------------------------------------------------------------|



Vers:

e|----------------------------------------------------------------------------------------|
B|----------------------------------------------------------------------------------------|
G|*-5-5-5-5-5-5-5-5-5-5-5-5-5-5-5-5-5-5-5-5-5-5-5-5-5-5-5-5-5-5-5-5-5-5-5-5-5--3--3--3/5-*|
D|*-x-x-x-x-x-x-x-x-x-x-x-x-x-x-x-x-x-x-x-x-x-x-x-x-x-x-x-x-x-x-x-x-x-x-x-x-x--x--x--x/x-*|
A|--3-3-3-3-3-3-3-3-3-3-3-3-3-3-3-3-3-3-3-3-3-3-3-3-3-3-3-3-3-3-3-3-3-3-3-3-3--1--1--1/3--|
E|----------------------------------------------------------------------------------------|



Strengen her er også dæmpet stille. Mellem-stykke:

e|-------------------------------------------------------------------------------------|
B|-------------------------------------------------------------------------------------|
G|-------------------------------------------------------------------------------------|
D|-------------------------------------------------------------------------------------|
A|-3-3-3-3-3-3-3-3-/-8-8-8-8-8-8-8-8-/-11-11-11-11-11-11-11-11-10-10-10-10-10-10-10-10-|
E|-------------------------------------------------------------------------------------|



e|---------------------------------------------------|
B|---------------------------------------------------|
G|---------------------------------------------------|
D|----5--------------------------5-------------------|
A|-3--------3-----6-----5-----3--------3-----6-----5-|
E|-------1-----4-----3--------------1-----4-----3----|



Omkvæd:

e|--------------------------------------------------------------------|
B|--------------------------------------------------------------------|
G|*------------------------------------------------------------------*|
D|*-5-5-5-5-5-5--5-5-5--5-5-5---5-5-6-6-6-6-6--6-8-8-8-8--8--8--3-/5-*|
A|--3-3-3-3-3-3--3-3-3--3-3-3---3-3-3-3-3-3-3--3-5-5-5-5--5--5--1/-3--|
E|--------------------------------------------------------------------|


Outro:
"Kom nu her, vi tar til Barcelona" stykke
er vers og omkvæd riffs. :)
196 exibições

Comentários 0

Composição: Michael Giles / Powerman 5000
Esse não é o compositor? Avise-nos.
Consegui tocarAinda não conseguiram tocar essa música. Seja o primeiro!
    Não consegui tocar
    Exibir acordes »
    publicidade
    fechar