Ending In Tragedy

New Found Glory

 New Found Glory
Tom: E
		
Tabbed by: Josh
Email: *

Tuning: standard

Intro/Interlude (clean)

e|---------------------------------------------------------------------|
B|---------------------------------------------------------------------|
G|---------------------------------------------------------------------|
D|--6------4---2---1---2---2--1---6------4---2---9---6---4-------------|
A|---------------------------------------------------------------------|
E|---------------------------------------------------------------------|


Verse (clean)

e|---------------------------------------------------------------------|
B|----4-------4-------4-------4----------------------------------------|
G|------4-------4-------4-------4--------------------------------------|
D|--6-------4-------2-------4------------------------------------------|
A|---------------------------------------------------------------------|
E|---------------------------------------------------------------------|


Chorus (distortion)

e|---------------------------------------------------------------------|
B|---------------------------------------------------------------------|
G|--4-----------------------------4------------------------------------|
D|--4---------4---------2---------4---4--------------------------------|
A|--2---------4---------2---------2---4--------------------------------|
E|------------2---------0-------------2--------------------------------|


Bridge (distortion)

e|---------------------------------------------------------------------|
B|---------------------------------------------------------------------|
G|--4-------------------9----------------------------------------------|
D|--4---------4---------9----------------------------------------------|
A|--2---------4---------7----------------------------------------------|
E|------------2--------------------------------------------------------|



| /  slide up
| \  slide down
| h  hammer-on
| p  pull-off
| ~  vibrato
| +  harmonic
| x  Mute note
===============================================================================
This is just the main parts, there's more I know and if you figure them out then
please e-mail me or e-mail me for corrections... this should get you started enjoy

Comentários 0

Composição: MIKA / New Found Glory
Esse não é o compositor? Avise-nos.
Consegui tocarAinda não conseguiram tocar essa música. Seja o primeiro!
    Não consegui tocar
    Exibir acordes »
    publicidade
    fechar