Too Bad

Nickelback

 Nickelback
 r = ring
 \ = slide down   

 Verses: (Clean)
G|--------------------|-------------------|--------------------|
D|*-------------------|-------------------|-------------------*|
A|*-------------------|-------------------|-------------------*|
C|--------15\---------|-3---3r------------|-5---5r----5---5r-3-|

G|--------------------|-------------------|----------------------|
D|*-------------------|-------------------|---------------------*|
A|*-------------------|-------------------|---------------------*|
C|-0---0r-------------|-3---3r------------|-5---5r----5----12-10-|


G|--------------------|-------------------|-------------------|
D|*-------------------|-------------------|------------------*|
A|*-------------------|-------------------|------------------*|
C|--0r----------------|-10--10r-----------|-5---5\------------|


 Chorus:
G|--------------------|-------------------|----------------------(x2)|
D|*-------------------|-------------------|-------------------------*|
A|*-------------------|-------------------|-------------------------*| 
C|--8-8-8-8-8-8-8-8-8-|--3-3-3-3-3-3-3-3--|-3h5--3-3h5--3-3h5--3-3h5-|




_______________________________________________________
Contribuição: Anderson(andersdias@hotmail.com)

Comentários 0

Composição: Chad Kroeger / Nickelback / Reinaldo Maia / Veit Renn
Esse não é o compositor? Avise-nos.
publicidade
fechar