Bye Bye Beautifull

Nightwish

 Nightwish
(intro)

  loose hats...
c1|----------------|X---------------|----------------|----------------|
c2|----------------|----------------|----------------|----------------|
 h|----------------|----x---x---x---|x---x---x---x---|x---x---x---x---|
 s|----------------|----0-------0---|----0-------0---|----0-------0---|
 f|------------f---|----------------|----------------|----------------|
 b|----------------|0---0---0---0---|0---0-000-0-0-0-|0---0---0---0---|

                                                                      
c1|----------------|----------------|----------------|----------------|
c2|----------------|----------------|----------------|----------------|
 h|x---x---x---x---|x---x---x---x---|x---x---x---x---|x---x---x---x---|
 s|----0-------0---|----0-------0---|----0-------0---|----0-------0---|
 f|----------------|----------------|----------------|----------------|
 b|0---0---0-000-0-|0---0---0---0---|0---0-000-0-0-0-|0---0---0---0---|

cl0se hat...
c1|----------------|x---------------|
c2|----------------|------------X---|
 h|x---x---x---x---|----x---x-------|
 s|----0-------0---|----0-------0---|
 f|----------------|----------------|
 b|0---0---0-0---0-|0-------0-0---0-|

(verso 1)

c1|x---------------|----------------|----------------|----------------|
 h|----x---x---x---|x---x---x---x---|x---x---x---x---|x---x---x---x---|
 s|----0-------0---|----0-------0---|----0-------0---|----0-------0---|
 b|0-------0-------|0-------0-----0-|0-------0-------|0-------0-0---0-|

c1|----------------|----------------|----------------|----------------|
 h|x---x---x---x---|x---x---x---x---|x---x---x---x---|x---x---x---x-0-|
 s|----0-------0---|----0-------0---|----0-------0---|----0-------0---|
 b|0-------0-------|0-------0-----0-|0-------0-------|0-------0-------|
                                                                   
c1|----------------|----------------|----------------|----------------|
 h|x---x---x---x---|x---x---x---x---|x---x---x---x---|x---x---x---x---|
 s|----0-------0---|----0-------0---|----0-------0---|----0-------0---|
 b|0-------0-------|0-------0-----0-|0-------0-------|0-------0-0---0-|

                                        open hats...
c1|----------------|----------------|----------------|----------------|
 h|x---x---x---x---|x---x---x---x---|x---x---x---x---|x---x---x---x---|
 s|----0-------0---|----0-------0---|----0-------0---|----0-------0---|
 b|0-------0-------|0-------0-----0-|0-------0-------|0-------0-0-----|

c1|----------------|----------------|
 h|----------------|----------------|
 s|0-0---0-0---0-0-|--0-0-----------|
 f|0-0---0-0---0-0-|--0-0-----------|
 b|0---0---0---0---|0---0-----------|

(refrão)

c1|X---------------|----------------|----------------|----------------|
c2|X---------------|----------------|----------------|----------------|
 r|--x-x-x-x-x-x-x-|x-x-x-x-x-x-x-x-|x-x-x-x-x-x-x-x-|x-x-x-x-x-x-x-x-|
 h|----------------|----------------|----------------|----------------|
 s|----0-------0---|----0-------0---|----0-------0---|----0-------0---|
 b|0---0---0---0---|0---0---0---0---|0---0---0---0---|0---0---0---0---|

c1|----------------|----------------|----------------|------------x---|
c2|----------------|----------------|----------------|----x-----------|
 r|x-x-x-x-x-x-x-x-|x-x-x-x-x-x-x-x-|x-x-x-x-x-x-x-x-|----------------|
 h|----------------|----------------|----------------|----------------|
 s|----0-------0---|----0-------0---|----0-------0---|----0-------0---|
 b|0---0---0---0---|0---0---0---0---|0---0---0---0---|0-0-----0-0-----|

c1|X---------------|----------------|----------------|----------------|
c2|----------------|----------------|----------------|----------------|
 r|--x-x-x-x-x-x-x-|x-x-x-x-x-x-x-x-|x-x-x-x-x-x-x-x-|x-x-x-x-x-x-x-x-|
 h|----------------|----------------|----------------|----------------|
 s|----0-------0---|----0-------0---|----0-------0---|----0-------0---|
 b|0---0---0---0---|0---0---0---0---|0---0---0---0---|0---0---0---0---|

c1|----------------|----------------|----------------|------------x---|
c2|----------------|----------------|----------------|----x-----------|
 r|x-x-x-x-x-x-x-x-|x-x-x-x-x-x-x-x-|x-x-x-x-x-x-x-x-|x-------x-------|
 h|----------------|----------------|----------------|----------------|
 s|----0-------0---|----0-------0---|----0-------0---|----0-------0---|
 b|0---0---0---0---|0---0---0---0---|0---0---0---0---|0-0-----0-0-----|

 s|----0-------0---|----0-----------|----0-------0---|----0-----------|
 f|0-0---0-0-----0-|0-0---0-000-000-|0-0---0-0-----0-|0-0---0-000-000-|
 b|0---0---0---0---|0---0---0---0---|0---0---0---0---|0---0---0---0---|

(ponte)

c1|X---------------|----------------|----------------|----------------|
c2|----------------|----------------|----------------|----------------|
 h|----x---x---x---|x---x---x---x---|x---x---x---x---|x---x---x---x---|
 s|----0-------0---|----0-------0---|----0-------0---|----0-------0---|
 f|----------------|----------------|----------------|----------------|
 b|0---0---0---0---|0---0-000-0-0-0-|0---0---0---0---|0---0---0-0-0-0-|

                                                                     
c1|----------------|----------------|----------------|----------------|
c2|----------------|----------------|----------------|----------------|
 h|x---x---x---x---|x---x---x---x---|x---x---x---x---|x---x---x---x---|
 s|----0-------0---|----0-------0---|----0-------0---|----0-------0---|
 f|----------------|----------------|----------------|----------------|
 b|0---0---0---0---|0---0---0-0-0-0-|0---0---0---0---|0---0---0-0---0-|

close hats...
c1|x---------------|
c2|------------X---|
 h|----x---x-------|
 s|----0-------0---|
 f|----------------|
 b|0-------0-0---0-|

(verso)

c1|x---------------|----------------|----------------|----------------|
c2|----------------|----------------|----------------|----------------|
 h|----x---x---x---|x---x---x---x---|x---x---x---x---|x---x---x---x---|
 s|----0-------0---|----0-------0---|----0-------0---|----0-------0---|
 b|0-------0-------|0-------0-----0-|0-------0-------|0-------0-0---0-|

c1|----------------|----------------|----------------|----------------|
c2|----------------|----------------|----------------|------------x---|
 h|x---x---x---x---|x---x---x---x---|x---x---x---x---|x---x---x-------|
 s|----0-------0---|----0-------0---|----0-------0---|----0-------0---|
 b|0-------0-------|0-------0-----0-|0-------0-------|0-------0-00----|
                                                                      
c1|x---------------|----------------|----------------|----------------|
c2|----------------|----------------|----------------|----------------|
 h|----x---x---x---|x---x---x---x---|x---x---x---x---|x---x---x---x---|
 s|----0-------0---|----0-------0---|----0-------0---|----0-------0---|
 b|0-------0-------|0-------0-----0-|0-------0-------|0-------0-0---0-|

                                     loose hats...
c1|----------------|----------------|----------------|----------------|
c2|----------------|----------------|----------------|----------------|
 h|x---x---x---x---|x---x---x---x---|x---x---x---x---|x---x---x---x---|
 s|----0-------0---|----0-------0---|----0-------0---|----0-------0---|
 T|----------------|----------------|----------------|----------------|
 f|----------------|----------------|----------------|----------------|
 b|0-------0-------|0-------0-----0-|0-------0-------|0-------0-0-----|

c1|----------------|----------------|
c2|----------------|----------------|
 h|----------------|----------------|
 s|0-0---0-0---0-0-|--0-0-----------|
 T|----00----------|00--0-----------|
 f|0-0---0-0---0-0-|--0-0-----------|
 b|0---0---0---0---|0---0-----------|

(refrão)

c1|X---------------|----------------|----------------|----------------|
c2|X---------------|----------------|----------------|----------------|
 r|--x-x-x-x-x-x-x-|x-x-x-x-x-x-x-x-|x-x-x-x-x-x-x-x-|x-x-x-x-x-x-x-x-|
 h|----------------|----------------|----------------|----------------|
 s|----0-------0---|----0-------0---|----0-------0---|----0-------0---|
 b|0---0---0---0---|0---0---0---0---|0---0---0---0---|0---0---0---0---|

c1|----------------|----------------|----------------|------------x---|
c2|----------------|----------------|----------------|----x-----------|
 r|x-x-x-x-x-x-x-x-|x-x-x-x-x-x-x-x-|x-x-x-x-x-x-x-x-|x-------x-------|
 h|----------------|----------------|----------------|----------------|
 s|----0-------0---|----0-------0---|----0-------0---|----0-------0---|
 b|0---0---0---0---|0---0---0---0---|0---0---0---0---|0-0-----0-0-----|

c1|X---------------|----------------|----------------|----------------|
c2|----------------|----------------|----------------|----------------|
 r|--x-x-x-x-x-x-x-|x-x-x-x-x-x-x-x-|x-x-x-x-x-x-x-x-|x-x-x-x-x-x-x-x-|
 h|----------------|----------------|----------------|----------------|
 s|----0-------0---|----0-------0---|----0-------0---|----0-------0---|
 b|0---0---0---0---|0---0---0---0---|0---0---0---0---|0---0---0---0---|

c1|----------------|----------------|----------------|------------x---|
c2|----------------|----------------|----------------|----x-----------|
 r|x-x-x-x-x-x-x-x-|x-x-x-x-x-x-x-x-|x-x-x-x-x-x-x-x-|x-------x-------|
 h|----------------|----------------|----------------|----------------|
 s|----0-------0---|----0-------0---|----0-------0---|----0-------0---|
 b|0---0---0---0---|0---0---0---0---|0---0---0---0---|0-0-----0-0-----|


c1|----------------|----------------|----------------|----------------|
c2|----------------|----------------|----------------|------------x---|
 s|----0-------0---|----0-----------|----0-------0---|----0-----------|
 T|----------------|----------------|----------------|----------------|
 f|0-0---0-0-----0-|0-0---0-000-000-|0-0---0-0-----0-|0-0---0-0-0-0-0-|
 b|0---0---0---0---|0---0---0---0---|0---0---0---0---|0---0---0---0---|

c1|X---------------|----------------|----------------|----------------|
c2|----------------|----------------|----------------|----------------|
 s|----0-------0---|----0-------0---|----0-------0---|----0-------0---|
 T|----------------|----------------|--------------0-|------0-------0-|
 f|0-0-0-0-0-0-0-0-|0-0-0-0-0-0-0-00|0-0-0-0-0-0-0-0-|0-0-0-0-0-0-0-0-|
 b|0---0---0---0---|0---0---0---0---|0---0---0---0---|0---0---0---0---|

c1|----------------|----------------|----------------|----------------|
c2|----------------|----------------|--------------x-|------x-----x---|
 s|----0-------0---|----0-------0---|----0-------0---|----0-------0---|
 T|----------------|----------------|----------------|----------------|
 f|0-0-0-0-0-0-0-0-|0-0-0-0-0-0-0-00|0-0-0-0-0-0-0-0-|0-0-0-0-0-0-----|
 b|0---0---0---0---|0---0---0---0---|0---0---0---0---|0---0---0---0---|

(verso 3)

open hat...
c1|x---------------|----------------|----------------|----------------|
c2|----------------|----------------|----------------|------------x---|
 h|----x---x---x---|x---x---x---x---|x---x---x---x---|x---x---x-------|
 s|----0-------0---|----0-------0---|----0-------0---|----0-------0---|
 b|0---0---0---0---|0---0---0---0---|0---0---0---0---|0---0---0---0---|

c1|x---------------|----------------|----------------|----------------|
c2|----------------|----------------|----------------|----------------|
 h|----x---x---x---|x---x---x---x---|x---x---x---x---|x---x---x---x---|
 s|----0-------0---|----0-------0---|----0-------0---|----0-------0---|
 b|0---0---0---0---|0---0---0---0---|0-0---0-0-0---0-|0-0---0-0-0---0-|

c1|----------------|----------------|
 h|----------------|----------------|
 s|0-0---0-0---0-0-|--0-0-----------|
 f|0-0---0-0---0-0-|--0-0-----------|
 b|0-0---0-0---0-0-|--0-0-----------|

 h|----------------|----------------|----------------|----------------|
 s|----------------|----------------|----------------|----------------|
 b|----------------|----------------|----------------|----------------|

 h|----------------|----------------|----------------|----------------|
 s|----------------|----------------|----------------|----------------|
 b|----------------|----------------|----------------|----------------|

(refrão)

c1|X---------------|----------------|----------------|----------------|
c2|X---------------|----------------|----------------|----------------|
 r|--x-x-x-x-x-x-x-|x-x-x-x-x-x-x-x-|x-x-x-x-x-x-x-x-|x-x-x-x-x-x-x-x-|
 h|----------------|----------------|----------------|----------------|
 s|----0-------0---|----0-------0---|----0-------0---|----0-------0---|
 b|0---0---0---0---|0---0---0---0---|0---0---0---0---|0---0---0---0---|

c1|----------------|----------------|----------------|------------x---|
c2|----------------|----------------|----------------|----x-----------|
 r|x-x-x-x-x-x-x-x-|x-x-x-x-x-x-x-x-|x-x-x-x-x-x-x-x-|x-------x-------|
 h|----------------|----------------|----------------|----------------|
 s|----0-------0---|----0-------0---|----0-------0---|----0-------0---|
 b|0---0---0---0---|0---0---0---0---|0---0---0---0---|0-0-----0-0---0-|

c1|X---------------|----------------|----------------|----------------|
c2|----------------|----------------|----------------|----------------|
 r|--x-x-x-x-x-x-x-|x-x-x-x-x-x-x-x-|x-x-x-x-x-x-x-x-|x-x-x-x-x-x-x-x-|
 h|----------------|----------------|----------------|----------------|
 s|----0-------0---|----0-------0---|----0-------0---|----0-------0---|
 b|0---0---0---0---|0---0---0---0---|0---0---0---0---|0---0---0---0---|

c1|----------------|----------------|----------------|------------x---|
c2|----------------|----------------|----------------|----x-----------|
 r|x-x-x-x-x-x-x-x-|x-x-x-x-x-x-x-x-|x-x-x-x-x-x-x-x-|x-------x-------|
 h|----------------|----------------|----------------|----------------|
 s|----0-------0---|----0-------0---|----0-------0---|----0-------0---|
 b|0---0---0---0---|0---0---0---0---|0---0---0---0---|0-0-----0-0-----|

c1|----------------|----------------|----------------|----------------|
c2|----------------|----------------|----------------|------------x---|
 s|----0-------0---|----0-----------|----0-------0---|----0-------0---|
 f|0-0---0-0-----0-|0-0---0-000-000-|0-0---0-0-----0-|0-0---0-0-0---0-|
 b|0---0---0---0---|0---0---0---0---|0---0---0---0---|0---0---0---0---|

c1|----x-----------|----------------|----------------|--X-X-----------|
c2|x---------------|----------------|------------X-X-|----------------|
 s|----0-------0---|----0-----------|0-0---0-0---0-0-|--0-0-----------|
 f|0-0-0-0-0-0-0-0-|0-0-0-0-000-000-|0-0-0-0-0-0-----|0---------------|
 b|0---0---0---0---|0---0---0---0---|0-0---0-0---0-0-|--0-0-----------|

Comentários 0

Consegui tocarAinda não conseguiram tocar essa música. Seja o primeiro!
    Não consegui tocar
    publicidade
    fechar