Tema Poderoso Chefão

Nino Rota

Sem foto do Nino Rota Compositor: Nino Rota
Tom: G#
		
Essa é música tema do Poderoso Chefão.
É bom ouvir a música original pois ela muda de ritmo.

Intro:

E|--------------------|----------------------|
B|-2--1-2-3-2-2-------|-2-1-2-4-2-2----------|
G|--------------1-----|-------------2--------|
D|--------------------|----------------------|
A|--------------------|----------------------|
E|--------------------|----------------------|



E|----------------------|
B|-2-1-2-5-2-2----------|
G|-------------2--------|
D|----------------------|
A|----------------------|
E|----------------------|


Música:


E|-----1-0---1---0--------------|-----1-0---1---0--------------|
B|---3-----3---3-----1----------|---3-----3---3----------------|
G|-2---------------3---2--------|-2---------------2-1-0--------|
D|------------------------------|------------------------------|
A|------------------------------|------------------------------|
E|------------------------------|------------------------------|



E|-------0----------------------|-----------------------------|
B|-----2-------2-3------1-------|-1---------------------------|
G|-0-3-----0-3------------3-2---|----3-3-2-2------------------|
D|------------------0-3---------|--------------0--------------|
A|------------------------------|------------4----------------|
E|------------------------------|-----------------------------|



E|---------0---------------------------|
B|-3-3-2-1---3---------1---------------|
G|-------------3-2---2---2-0--0-3-0-2--|
D|-------------------------------------|
A|-------------------------------------|
E|-------------------------------------|
23.147 exibições

Comentários 2

Exibir acordes »
publicidade
fechar