Blew

Nirvana

 Nirvana
   Intro
G--------------------||
D--------------------||    Repeat 4 times
A--------------------||
E--0-0-2-2h(3)-3-2---||

    1 + 2 +  3  + 4 +



   Verses
G------------------------|-----------------------------|
D------------------------|-----------------------------|
A------------------------|-----------------------------|
E-0---3-5-5b(1/2)-(6)r5--|---3-0-0-5b(1/2)---5b(1/2)---|

   1 + 2 +    3     4  +      + 2 + 3         4
   If you wouldn't mind...



G-----------------------|-----------------------------||
D-----------------------|-----------------------------||
A-----------------------|-----------------------------||
E-0-0-3-5b(1/2)-(6)r5---|---3-0-0-5b(1/2)---5b(1/2)---||

   1 + 2 +  3     4  +       + 2 + 3         4

    Chorus                                (2x)
G-------------------|----------------------||-----------------|
D-------------------|---------------------o||-----------------|
A-------------------|---------------------o||-----------------|
E---0-5---5-5-3-0---|-0-5---5-5-3-5b(1/2)--||-0-5---5-5-3-0---|

      1 +   + 3 + 4     1 +   + 3 +    4        1 +   + 3 + 4
      Is there another...

G-----------------|-----------------||
D-----------------|-----------------||
A-----------------|-----------------||
E-0-5---5-5-3-----|-6-6-6-6-6-6-6-6-||

   1 +   + 3 +       1 + 2 + 3 + 4 +

   Outro                            Repeat as necessary
G-------------------------||---------------------------||
D-------------------------||o-------------------------o||
A-------------------------||o-------------------------o||
E-0-0-3-5-5b(1/2)-(6)-r-0-||----0-3-5-5b(1/2)-(6)-r-0--||

   1 + 2 +   3      +    +       + 2 +   3      +    +
     You could do anything...

G---------------------------|--------------------|||
D---------------------------|--------------------|||
A---------------------------|--------------------|||
E---0-3-5-5b(1/2)-(6)-------|-(6)-r-5------------|||

     + 2 +    3     +           1    2


_______________________________________________________
Contribuição: Fabiano de Souza Barbosa(onaibafsb@bol.com.br)

Comentários 0

publicidade
fechar