Heart-shaped Box

Nirvana

 Nirvana
Tom: G
		
Afinação: Drop D (D A D G B E)

Introdução: Toca esse riff (2x)



E|---------------------------------------|
B|---------------------------------------|
G|----2----------------------------------|            Parte 1
D|--2---2-----3-------0---0--------------|
A|0---------3---3---0---0---0------------|
D|--------3-------0----------------------|



E|---------------------------------------|
B|---------------------------------------|
G|----2----------------------------------|            Parte 2
D|--2---2-----3-----2/4-4---4-----0------|
A|0---------3---3---------0---3-3--------|
D|--------3-------0----------------------|



Estrofe: Na gravação ele é tocado como esta descrito aqui embaixo mas vocês podem tocar como na introdução (4x)


E|---------------------------------------|
B|---------------------------------------|
G|----2----------------------------------|            Parte 1
D|--2---2-----3-------0---0--------------|
A|0---------3---3---0---0---0------------|
D|--------3-------0----------------------|



E|---------------------------------------|
B|---------------------------------------|
G|----2----------------------------------|            Parte 2 (variação da parte 2 do riff da introdução)
D|--2---2-----3-----2/4-4-4-4-----0------|
A|0---------3---3-------------3-3--------|
D|--------3-------0----------------------|


She eyes me like a Pisces when I am weak
I've been locked inside your Heart-Shaped box for weeks
I was drawn into your magnet tar pit trap
I wish I could eat your cancer when you turn back

REFRÃO: Riff do Refrão


E|---------------------------------------
B|---------------------------------------
G|----4b-----4b---------------4b----------   Parte 1: toca 4x (0 final com o slide pode ser feito como na
D|2-2----3-3------2/4-4-4-4---------------   introdução.
A|0-0----3-3----------------3-------------
D|-------3-3----0------------------------


Hey, Wait, I've got a new complaint
Forever in debt to your priceless advice
Hey, Wait, I've got a new complaint
Forever in debt to your priceless advice


E|--------------------------------------------------
B|--------------------------------------------------
G|--------------------------------------------------
D|3-3-3-3-3-3-3-3-0---0---0-------------------------  Parte 2 (ouça a música para pegar o tempo)
A|3-3-3-3-3-3-3-3-0---0---0-------------------------
D|3-3-3-3-3-3-3-3-0---0---0-------------------------



E|--------------------------------------------------
B|--------------------------------------------------
G|--------------------------------------------------
D|3-3-3-3-3-3-3-3---2/4-4-4-4-----0-----------------  Parte 3
A|3-3-3-3-3-3-3-3-------------3-3-------------------
D|3-3-3-3-3-3-3-3-0---------------------------------


Your advice
Your advice


Estrofe: Igual a primeira com variação na letra (4x)

Meat-eating orchids forgive no one just yet
Cut myself angel's hair and baby's breath
Broken hymen of your highness I'm left black
Throw down your umbilical noose so I can climb right back

Refrão: Igual ao primeiro

Hey, Wait, I've got a new complaint
Forever in debt to your priceless advice
Hey, Wait, I've got a new complaint
Forever in debt to your priceless advice

Your advice
Your advice

Solo:


E|--------------------------------------
B|--8b---6b---5b-5-3-1-0----------------
G|--------------------------------------
D|7----5----3---------------------------
A|--------------------------------------
D|--------------------------------------




E|--------------------------------------
B|--8b---6b---5b-5-3-1-0----------------   No primeiro toque no A5 o Kurt usa a alavanca para gerar o efeito
G|-----------------------2~~~~~~2-------   que ouvimos, e no segundo ele para o som do acorde rapidamente.
D|7----5----3------------2~~~~~~2-------
A|-----------------------0~~~~~~0-------
D|--------------------------------------



Estrofe: Igual as outra com letra igual a primeira (4x)

She eyes me like a Pisces when I am weak
I've been locked inside your Heart-Shaped box for weeks
I was drawn into your magnet tar pit trap
I wish I could eat your cancer when you turn back

Refrão Final:


Hey, Wait, I've got a new complaint
Forever in debt to your priceless advice
Hey, Wait, I've got a new complaint
Forever in debt to your priceless advice

Your advice(Toca a parte 2 do riff do refrão)
Your advice(Toca a parte 2 do riff do refrão)
Your advice(Toca a parte 2 do riff do refrão)
Your advice(Aqui se toca a parte 3 do riff mas sem a ultima nota como esta aqui em baixo)

Finalização:



E|--------------------------------------------------
B|--------------------------------------------------
G|--------------------------------------------------
D|3-3-3-3-3-3-3-3---2/4-4-4-4-----------------------   Parte 3(variação)
A|3-3-3-3-3-3-3-3-------------3-3-------------------
D|3-3-3-3-3-3-3-3-0---------------------------------
Texto Colunas
Alterar tom ½ tom ½ tom
afinação acordes na letra esconder tabs mais »

Comentários 147

  • Luis Antonio Luis Antonio: Postado em 29/09/2014 20:36

    A afinação não é em Drop Db, é em Drop D.Já mandei a correção pro CC e espero que eles ajeitem.

  • mauricio.carrion.75 mauricio.carrion.75: Postado em 13/07/2014 21:59

    Pra ficar bom é so afina a 6° corda em Db

  • Pops Maya Pops Maya: Postado em 20/05/2014 18:09

    perfeito, sem mais!

  • herminio herminio: Postado em 16/05/2014 19:43

    pfv video aula

  • Ricardinho Ricardinho: Postado em 18/03/2014 18:30

    facil facil

  • Robert Robert: Postado em 19/02/2014 20:21

    como se faz (5)--(6)--I em uma musica alguém me ajuda por favor?

  • Luis Antonio Luis Antonio: Postado em 03/02/2014 16:13

    galera eu arrumei a tab ontem(02 de Fevereiro)e agora ta certa e organizada.

  • Guilherme Guilherme: Postado em 18/08/2013 15:14

    nao se afina assim,vai no afinador que e bem mais facil

  • igor igor: Postado em 04/07/2013 15:36

    alguem tem a versao anterior ? uma que começa com um G# em powerchord ( nao sei se esse nome ta certo ) ?

    • dgrg dgrg: Postado em 03/12/2013 21:49

      tambem queria com essa afinação dava pra toca sem ter que meche na afinação ai vem um bosta e meche na música

Exibindo 10 de 147 comentários Mostrar mais ver todos »
Composição: Kurt Cobain
Esse não é o compositor? Avise-nos.
Contribuição: mat_fms Correções: Luis Antonio , Danylo e mais 38 »
  1. Até Você Voltar - Henrique e Juliano Manteve-se 88.213 exibições
  2. Domingo de Manhã - Marcos e Belutti Manteve-se 73.147 exibições
  3. Cuida Bem Dela - Henrique e Juliano Manteve-se 64.261 exibições
  4. Rude - Magic! Manteve-se 49.449 exibições
  5. Diz Pra Mim - Malta Manteve-se 46.383 exibições
  6. Raridade - Anderson Freire Manteve-se 42.589 exibições
  7. Recaídas - Henrique e Juliano Manteve-se 37.208 exibições
  8. Só Os Loucos Sabem - Charlie Brown Jr. Manteve-se 30.537 exibições
  9. Let Her Go - Passenger Manteve-se 30.278 exibições
  10. Pra Você - Onze:20 Manteve-se 29.680 exibições
  1. Henrique e Juliano- Manteve-se 285.568 exibições
  2. Jorge e Mateus- Manteve-se 220.695 exibições
  3. Legião Urbana- Manteve-se 194.422 exibições
  4. Charlie Brown Jr.- Manteve-se 147.872 exibições
  5. Bruno e Marrone- Manteve-se 117.970 exibições
  6. Fernandinho- Manteve-se 115.536 exibições
  7. Luan Santana- Manteve-se 99.982 exibições
  8. Victor e Leo- Manteve-se 91.754 exibições
  9. Marcos e Belutti- Manteve-se 90.432 exibições
  10. Thalles Roberto- Manteve-se 87.022 exibições
Exibir acordes »

Cifras e tabs

Fórum Cifra Club

Aprenda

Cifra Club News

Mais Serviços Cifra Club ID

Studio Sol

©1996 - 2014 Cifra Club · o primeiro, maior e mais acessado do Brasil · 341 mil músicas · 6.3 milhões pessoas cadastradas

publicidade
fechar