Heart-shaped Box

Nirvana

 Nirvana
Tom: B
Afinação: Eb Ab Db Gb Bb Eb
		
Afinado em:
Eb Bb Gb Db Ab Db



     A5       F5       D5
Eb|-----------------------------------------------|    |
Bb|-----------------------------------------------|    |
Gb|-------2---------------------------------------|    |
Db|-----2---2------3--------0---0-----------------|    |> Riff 1A
Ab|---0----------3---3----0---0---0---------------|    |
Db|------------3--------0-------------------------|    |


     A5       F5       D5
Eb|-----------------------------------------------|    |
Bb|-------2---------------------------------------|    |> Riff 1B 
Gb|-------2---------------------------------------|    |
Db|-----2---2------3----------0-----0-------------|    |
Ab|---0----------3---3----0-------0---------------|    |
Db|------------3--------0---0---0-----------------|    |


     A5       F5       D5
Eb|-----------------------------------------------|    |
Bb|-------2---------------------------------------|    |> Riff 1C 
Gb|-------2---------------------------------------|    |
Db|-----2---2------3----------0-------0-----------|    |
Ab|---0----------3---3----0-------0---------------|    |
Db|------------3--------0---0-------0-------------|    |


     A5       F5       D5
Eb|-----------------------------------------------|    |
Bb|-------2---------------------------------------|    |> Riff 1D
Gb|-------2---------------------------------------|    |
Db|-----2---2------3----------0-0-----------------|    |
Ab|---0----------3---3----0-------0---------------|    |
Db|------------3--------0---0-------0-------------|    |


     A5       F5
Eb|-----------------------------------------------|    |>Riff 2A
Bb|-----------------------------------------------|    | 
Gb|-------2-----------------------------4---------|    |
Db|-----2---2------3------2/4-4---4-----0---------|    |
Ab|---0----------3---3----------3---3-3-----------|    |
Db|------------3--------0-------------------------|    |


     A5       F5
Eb|-----------------------------------------------|    |>Riff 2B
Bb|-----------------------------------------------|    | 
Gb|-------2---------------------------------------|    |
Db|-----2---2------3------2/4-4---4-----0---------|    |
Ab|---0----------3---3----------3---3-3-----------|    |
Db|------------3--------0-------------------------|    |


     A5       F5
Eb|-----------------------------------------------|    |
Bb|-----------------------------------------------|    |
Gb|-------2---------------------------------------|    |> Riff 2C
Db|-----2---2------3------2/4-4-4-4-----0---------|    |(Usado sempre antes do refrão)
Ab|---0----------3---3--------------3-3-----------|    |
Db|------------3--------0-------------------------|    |                                            



Introdução:
Riff 1A seguido do Riff 2A




|(Riff 1)                   |(Riff 2)

She eyes me like a pisces when I am weak
|(Riff 1)                                  |(Riff 2)
I've been locked inside your heart-shaped box for weeks
|(Riff 1)                         |(Riff 2)
I've been drawn into your magnet tar pit trap

|(Riff 1)                        |(Riff 2)

I wish I could eat your cancer when you turn black

Refrão (B):

      A5      F5      D5
Eb|------------------------------------|
Bb|------------------------------------|
Gb|--2-2-4b------4b----------------4b--|
Db|--2-2-----3-3-------2/4-4-4-4-------|
Ab|--0-0-----3-3-----0-----------3-----|
Db|----------3-3-----0-----------------|


Refrão(B):

      A5      F5      D5
Eb|------------------------------------|
Bb|------------------------------------|
Gb|------------------------4b~---------|
Db|--3-3-3-3-3-3-3-3-0-0-0-0~----------|
Ab|--3-3-3-3-3-3-3-3-0-0-0-0~----------|
Db|--3-3-3-3-3-3-3-3-0-0-0-0~----------|


Final do Refrão(C):

      A5      F5      D5
Eb|-------------------------------------|
Bb|-------------------------------------|
Gb|-------------------------------------|
Db|--3-3-3-3-3-3-3-3-0-2/4-4-4-4-----0--|
Ab|--3-3-3-3-3-3-3-3-0-----------3-3----|
Db|--3-3-3-3-3-3-3-3-0------------------|






|(Refrão A)

Hey, wait, I got a new complaint

|(Refrão A)

Forever in debt to your priceless advice

|(Refrão A)

Hey, wait, I got a new complaint

|(Refrão A)

Forever in debt to your priceless advice

|(Refrão A)

Hey, wait, I got a new complaint,
|(Refrão A)                      |(Refrão B)
Forever in debt to your priceless advice
|(Refrão C)
Your advice...

|(Riff 1)                    |(Riff 2) 
Meat eating orchids forgive no-one just yet
(Riff 1)                     |(Riff 2)
Cut myself on angel hair and babies breath

(Riff 1)                      |(Riff 2)

Broken hymen of your highness I'm left black

(Riff 1)                               |(Riff 2)

Throw down your umbilical noose so I can climb right back


|(Refrão A)

Hey, wait, I got a new complaint

|(Refrão A)

Forever in debt to your priceless advice

|(Refrão A)

Hey, wait, I got a new complaint

|(Refrão A)

Forever in debt to your priceless advice

|(Refrão A)

Hey, wait, I got a new complaint,
|(Refrão A)                      |(Refrão B)
Forever in debt to your priceless advice
|(Refrão C)
Your advice...

(Solo)


Eb|--------------------------------------------------------------|
Bb|--8b\6---6b---5b-5-3-1-0---8b\6---6b--5b-5-3-1----------------|
Gb|------------------------------------------------2~~~~~~2------|
Db|7------5----3------------7------5---3-----------2~~~~~~2------|
Ab|------------------------------------------------0~~~~~~0------|
Db|--------------------------------------------------------------|




|(Riff 1)                   |(Riff 2)

She eyes me like a pisces when I am weak
|(Riff 1)                                  |(Riff 2)
I've been locked inside your heart-shaped box for weeks
|(Riff 1)                         |(Riff 2)
I've been drawn into your magnet tar pit trap

|(Riff 1)                        |(Riff 2)

I wish I could leach your cancer when you turn black


|(Refrão A)

Hey, wait, I got a new complaint

|(Refrão A)

Forever in debt to your priceless advice

|(Refrão A)

Hey, wait, I got a new complaint

|(Refrão A)

Forever in debt to your priceless advice

|(Refrão A)

Hey, wait, I got a new complaint,
|(Refrão A)                      |(Refrão B)
Forever in debt to your priceless advice
|(Refrão C)
Your advice...





Apesar de serem poucos Riffs,
Kurt faz muitas variações deles ao longo da canção
Então vou coloquei aqui todas as variações que ele
usa durante a música.
Ele usa cada variação aleatóriamente tanto na música como
nos shows ao vivo então eu recomendo que vocês tentem
fazer todas e quando forem tocar vão colocando qualquer
uma das opções. Isso pode servir como uma leve introdução
para se improvisar as notas pra posteriormente criar
seus próprios riffs

Comentários 148

  • David David: Postado em 11/12/2014 16:38

    1° Nessa música a guitarra é afinada em C-G-C-F-A-D

  • Luis Antonio Luis Antonio: Postado em 29/09/2014 20:36

    A afinação não é em Drop Db, é em Drop D.Já mandei a correção pro CC e espero que eles ajeitem.

  • mauricio.carrion.75 mauricio.carrion.75: Postado em 13/07/2014 21:59

    Pra ficar bom é so afina a 6° corda em Db

  • Pops Maya Pops Maya: Postado em 20/05/2014 18:09

    perfeito, sem mais!

  • herminio herminio: Postado em 16/05/2014 19:43

    pfv video aula

  • Ricardinho Ricardinho: Postado em 18/03/2014 18:30

    facil facil

  • Robert Robert: Postado em 19/02/2014 20:21

    como se faz (5)--(6)--I em uma musica alguém me ajuda por favor?

  • Luis Antonio Luis Antonio: Postado em 03/02/2014 16:13

    galera eu arrumei a tab ontem(02 de Fevereiro)e agora ta certa e organizada.

  • Guilherme Guilherme: Postado em 18/08/2013 15:14

    nao se afina assim,vai no afinador que e bem mais facil

  • igor igor: Postado em 04/07/2013 15:36

    alguem tem a versao anterior ? uma que começa com um G# em powerchord ( nao sei se esse nome ta certo ) ?

    • dgrg dgrg: Postado em 03/12/2013 21:49

      tambem queria com essa afinação dava pra toca sem ter que meche na afinação ai vem um bosta e meche na música

Exibindo 11 de 148 comentários Mostrar mais ver todos »
Composição: Kurt Cobain
Esse não é o compositor? Avise-nos.
Contribuição: mat_fms Correções: David , mauricio.carrion.75 e mais 40 »
Exibir acordes »
publicidade
fechar