Heart-shaped Box

Nirvana

 Nirvana
Tom: D
		
Riff 1:

      A5     F5      D5
E|--------------------------------------------------|
B|--------------------------------------------------|
G|-------2-------------7---7------------------------|
D|-----2--------3----7---7--------------------------|
A|---0--------3----5--------------------------------|
E|----------1---------------------------------------|


Riff 2 (Riff 1 com variação):

      A5        F5
E|--------------------------------------------------|
B|--------------------------------------------------|
G|-------2------------------------------------------|
D|-----2--------3-----4-4-4-4-----------------------|
A|---0--------3-----5---------3-3-5-----------------|
E|----------1---------------------------------------|


(Riff 1)
She eyes me like a pisces when I am weak
(Riff 2)
I've been locked inside your heart-shaped box for weeks
(Riff 1)
I've been drawn into your magnet tar pit trap
(Riff 2)
I wish I could eat your cancer when you turn black

A5     F5   D5
Hey, wait, I got a new complaint
A5       F5   D5
Forever in debt to your priceless advice
A5     F5   D5
Hey, wait, I got a new complaint
A5       F5   D5
Forever in debt to your priceless advice
A5     F5   D5
Hey, wait, I got a new complaint,
A5       F5   D5
Forever in debt to your priceless advice
A5
Your advice...

(Riff 1)
Meat eating orchids forgive no-one just yet
(Riff 2)
Cut myself on angel hair and babies breath
(Riff 1)
Broken hymen of your highness I'm left black
(Riff 2)
Throw down your umbilical noose so I can climb right back

A5     F5   D5
Hey, wait, I got a new complaint
A5       F5   D5
Forever in debt to your priceless advice
A5     F5   D5
Hey, wait, I got a new complaint
A5       F5   D5
Forever in debt to your priceless advice
A5     F5   D5
Hey, wait, I got a new complaint,
A5       F5   D5
Forever in debt to your priceless advice
A5
Your advice...

(Solo)


E|--------------------------------------
B|--8b---6b---5b-5-3-1-0----------------
G|--------------------------------------
D|7----5----3---------------------------
A|--------------------------------------
E|--------------------------------------


                            A5
E|--------------------------------------
B|--8b---6b---5b-5-3-1-0---------------- 
G|-----------------------2~~~~~~2------- No A5 ele usa a Alavanca para fazer aquele efeito.
D|7----5----3------------2~~~~~~2-------
A|-----------------------0~~~~~~0-------
E|--------------------------------------


(Riff 1)
She eyes me like a pisces when I am weak
(Riff 2)
I've been locked inside your heart-shaped box for weeks
(Riff 1)
I've been drawn into your magnet tar pit trap
(Riff 2)
I wish I could leach your cancer when you turn black

A5       F5   D5
Hey, wait, I got a new complaint
A5       F5   D5
Forever in debt to your priceless advice
A5       F5   D5
Hey, wait, I got a new complaint
A5       F5   D5
Forever in debt to your priceless advice
A5       F5   D5
Hey, wait, I got a new complaint,
A5       F5   D5
Forever in debt to your priceless advice
A5
Your advice...

Comentários 147

  • Luis Antonio Luis Antonio: Postado em 29/09/2014 20:36

    A afinação não é em Drop Db, é em Drop D.Já mandei a correção pro CC e espero que eles ajeitem.

  • mauricio.carrion.75 mauricio.carrion.75: Postado em 13/07/2014 21:59

    Pra ficar bom é so afina a 6° corda em Db

  • Pops Maya Pops Maya: Postado em 20/05/2014 18:09

    perfeito, sem mais!

  • herminio herminio: Postado em 16/05/2014 19:43

    pfv video aula

  • Ricardinho Ricardinho: Postado em 18/03/2014 18:30

    facil facil

  • Robert Robert: Postado em 19/02/2014 20:21

    como se faz (5)--(6)--I em uma musica alguém me ajuda por favor?

  • Luis Antonio Luis Antonio: Postado em 03/02/2014 16:13

    galera eu arrumei a tab ontem(02 de Fevereiro)e agora ta certa e organizada.

  • Guilherme Guilherme: Postado em 18/08/2013 15:14

    nao se afina assim,vai no afinador que e bem mais facil

  • igor igor: Postado em 04/07/2013 15:36

    alguem tem a versao anterior ? uma que começa com um G# em powerchord ( nao sei se esse nome ta certo ) ?

    • dgrg dgrg: Postado em 03/12/2013 21:49

      tambem queria com essa afinação dava pra toca sem ter que meche na afinação ai vem um bosta e meche na música

Exibindo 10 de 147 comentários Mostrar mais ver todos »
Composição: Kurt Cobain
Esse não é o compositor? Avise-nos.
Contribuição: mat_fms Correções: Leandro , manolodorock e mais 39 »
Exibir acordes »
publicidade
fechar