Heart-shaped Box

Nirvana

 Nirvana
Tom: G
		
Afinação:Drop D(D A D G B E)como na versão de estúdio


Introdução:Toca esse riff(2x)



D|---------------------------------------
A|---------------------------------------
D|----2----------------------------------            Parte 1
G|--2---2-----3-------0---0--------------
B|0---------3---3---0---0---0------------
A|--------3-------0----------------------



D|---------------------------------------
A|---------------------------------------
D|----2----------------------------------            Parte 2
G|--2---2-----3-----2/4-4---4-----0------
B|0---------3---3---------0---3-3--------
A|--------3-------0----------------------



Estrofe:Na gravação ele é tocado como esta descrito aqui embaixo mas vocês podem tocar como na introdução(4x)


D|---------------------------------------
A|---------------------------------------
D|----2----------------------------------            Parte 1
G|--2---2-----3-------0---0--------------
B|0---------3---3---0---0---0------------
A|--------3-------0----------------------



D|---------------------------------------
A|---------------------------------------
D|----2----------------------------------            Parte 2(variação da parte 2 do riff da introdução)
G|--2---2-----3-----2/4-4-4-4-----0------
B|0---------3---3-------------3-3--------
A|--------3-------0----------------------


She eyes me like a Pisces when I am weak
I've been locked inside your Heart-Shaped box for weeks
I was drawn into your magnet tar pit trap
I wish I could eat your cancer when you turn back

REFRÃO:Riff do Refrão


E|---------------------------------------
B|---------------------------------------
G|----4b-----4b---------------4b----------   Parte 1:toca 4x(0 final com o slide pode ser feito como na
D|2-2----3-3------2/4-4-4-4---------------   introdução.
A|0-0----3-3----------------3-------------
D|-------3-3----0------------------------


Hey, Wait, I've got a new complaint
Forever in debt to your priceless advice
Hey, Wait, I've got a new complaint
Forever in debt to your priceless advice


E|--------------------------------------------------
B|--------------------------------------------------
G|--------------------------------------------------
D|3-3-3-3-3-3-3-3-0---0---0-------------------------  Parte 2(ouça a música para pegar o tempo)
A|3-3-3-3-3-3-3-3-0---0---0-------------------------
D|3-3-3-3-3-3-3-3-0---0---0-------------------------



E|--------------------------------------------------
B|--------------------------------------------------
G|--------------------------------------------------
D|3-3-3-3-3-3-3-3---2/4-4-4-4-----0-----------------  Parte 3
A|3-3-3-3-3-3-3-3-------------3-3-------------------
D|3-3-3-3-3-3-3-3-0---------------------------------


Your advice
Your advice


Estrofe:Igual a primeira com variação na letra (4x)

Meat-eating orchids forgive no one just yet
Cut myself angel's hair and baby's breath
Broken hymen of your highness I'm left black
Throw down your umbilical noose so I can climb right back

Refrão:Igual ao primeiro

Hey, Wait, I've got a new complaint
Forever in debt to your priceless advice
Hey, Wait, I've got a new complaint
Forever in debt to your priceless advice

Your advice
Your advice

Solo:


E|--------------------------------------
B|--8b---7b---5b-5-3-1-0----------------
G|--------------------------------------
D|7----6----3---------------------------
A|--------------------------------------
D|--------------------------------------




E|--------------------------------------
B|--8b---7b---5b-5-3-1-0----------------   No primeiro toque no A5 o Kurt usa a alavanca para gerar o efeito
G|-----------------------2~~~~~~2-------   que ouvimos,e no segundo ele para o som do acorde rapidamente.
D|7----6----3------------2~~~~~~2-------
A|-----------------------0~~~~~~0-------
D|--------------------------------------



Estrofe:Igual as outra com letra igual a primeira(4x)

She eyes me like a Pisces when I am weak
I've been locked inside your Heart-Shaped box for weeks
I was drawn into your magnet tar pit trap
I wish I could eat your cancer when you turn back

Refrão Final:


Hey, Wait, I've got a new complaint
Forever in debt to your priceless advice
Hey, Wait, I've got a new complaint
Forever in debt to your priceless advice

Your advice(Toca a parte 2 do riff do refrão)
Your advice(Toca a parte 2 do riff do refrão)
Your advice(Toca a parte 2 do riff do refrão)
Your advice(Aqui se toca a parte 3 do riff mas sem a ultima nota como esta aqui em baixo)

Finalização:



E|--------------------------------------------------
B|--------------------------------------------------
G|--------------------------------------------------
D|3-3-3-3-3-3-3-3---2/4-4-4-4-----------------------   Parte 3(variação)
A|3-3-3-3-3-3-3-3-------------3-3-------------------
D|3-3-3-3-3-3-3-3-0---------------------------------
Texto Colunas
Alterar tom ½ tom ½ tom
afinação acordes na letra esconder tabs mais »

Comentários (143)

  • Ricardinho Ricardinho: Postado em 18/03/2014 18:30

    facil facil

  • Robert Robert: Postado em 19/02/2014 20:21

    como se faz (5)--(6)--I em uma musica alguém me ajuda por favor?

  • Luis Antonio Luis Antonio: Postado em 03/02/2014 16:13

    galera eu arrumei a tab ontem(02 de Fevereiro)e agora ta certa e organizada.

  • Guilherme Guilherme: Postado em 18/08/2013 15:14

    nao se afina assim,vai no afinador que e bem mais facil

  • igor igor: Postado em 04/07/2013 15:36

    alguem tem a versao anterior ? uma que começa com um G# em powerchord ( nao sei se esse nome ta certo ) ?

    • dgrg dgrg: Postado em 03/12/2013 21:49

      tambem queria com essa afinação dava pra toca sem ter que meche na afinação ai vem um bosta e meche na música

  • lipefera lipefera: Postado em 26/06/2013 20:44

    Ta certa é so dropar a mizona em D

  • guigarock123 guigarock123: Postado em 22/06/2013 15:17

    Não consigo afinar! Quando clico em afinação pra ouvir o som da corda, aparece uma mensagem sobre o Quicktime, mas eu já tenho ele instalado

  • paulopulsene paulopulsene: Postado em 16/06/2013 16:44

    Ta perfeita parem de reclamar , dessa musica te hj e a mais correta

  • Gabriel Gabriel: Postado em 28/05/2013 17:28

    Affz velho Tab. esta errada mesmo DX

    • Boddah Boddah: Postado em 14/06/2013 20:55

      psé e antes tava certo :\

    • cid.roberto.92 cid.roberto.92: Postado em 17/01/2014 11:00

      a tab ta certa...vc tem que afinar em drop D

Exibindo 12 de 143 comentários Mostrar mais ver todos »
Composição: Kurt Cobain
Esse não é o compositor? Avise-nos.
Contribuição: mat_fms Correções: Luis Antonio , erickike e mais 32 »
  1. Tudo Que Você Quiser - Luan Santana Manteve-se 6.028 exibições
  2. Lepo Lepo - Psirico Manteve-se 4.297 exibições
  3. Pra Você - Onze:20 Manteve-se 4.147 exibições
  4. Mozão - Lucas Lucco Manteve-se 4.130 exibições
  5. Logo Eu - Jorge e Mateus Manteve-se 3.983 exibições
  6. Gaveta - Fernando e Sorocaba Manteve-se 3.779 exibições
  7. Só Os Loucos Sabem - Charlie Brown Jr. Manteve-se 3.131 exibições
  8. Tempo Perdido - Legião Urbana Manteve-se 2.706 exibições
  9. Fui Fiel - Gusttavo Lima Manteve-se 2.673 exibições
  10. Domingo de Manha - Marcos e Belutti Manteve-se 2.465 exibições
  1. Jorge e Mateus- Manteve-se 23.782 exibições
  2. Legião Urbana- Manteve-se 21.512 exibições
  3. Charlie Brown Jr.- Manteve-se 17.212 exibições
  4. Luan Santana- Manteve-se 17.149 exibições
  5. Fernandinho- Manteve-se 15.105 exibições
  6. Thalles Roberto- Manteve-se 11.065 exibições
  7. Católicas- Manteve-se 10.946 exibições
  8. Gusttavo Lima- Manteve-se 10.939 exibições
  9. Victor e Leo- Manteve-se 10.661 exibições
  10. Bruno e Marrone- Manteve-se 10.324 exibições
Exibir acordes »

Cifras e tabs

Fórum Cifra Club

Aprenda

Cifra Club News

Mais Serviços Cifra Club ID

Studio Sol

©1996 - 2014 Cifra Club · o primeiro, maior e mais acessado do Brasil · 329 mil músicas · 6.0 milhões pessoas cadastradas

publicidade
fechar