Nirvana

Sappy

79.679 exibições
Tom: F#
Verso:


   C#5            A5     F#5     G#5          A5     B5
E|-------------------------------------------------------------|
B|-------------------------------------------------------------|
G|-6--6-6--6-6-6-2--2-2-----------------------2--2-2-4-4-4-4---|
D|-6--6-6--6-6-6-2--2-2-4-4-4-4-6--6-6--6-6-6-2--2-2-4-4-4-4---|
A|-4--4-4--4-4-4-0--0-0-4-4-4-4-6--6-6--6-6-6-0--0-0-2-2-2-2---|
E|----------------------2-2-2-2-4--4-4--4-6-4------------------|


C#5         A5   F#5
 And if you save yourself
G#5       A5   B5
 You will make him happy

Entra a distorção

C#5             A5 F#5
 He'll keep you in a jar
G#5         A5    B5
 And you'll think you're happy
C#5             A5        F#5
 He'll give you breathing holes
G#5          A5    B5
 Then you'll think you're happy
C#5          A5  F#5
 He'll cover you with grass
G#5         A5   B5
 And you'll think you're happy
C#5
 Now
Refrão:


    A5            F#5           G#5
E|---------------------------------|
B|---------------------------------|
G|-2--2-2--2-2-2-------------------|
D|-2--2-2--2-2-2-4--4-4--4-4-4-6---|
A|-0--0-0--0-0-0-4--4-4--4-4-4-6---|
E|---------------2--2-2--2-2-2-4---|


A5           F#5
 You're in a laundry room,
A5           F#5
 You're in a laundry room,
A5           F#5            G#5
 Conclusion came to you, ohh

Repetição do Verso

Repetição do Refrão

SOLO

E|-----------------------------------------------------------------------|
B|-----------------------------------------------------------------------|
G|-------------------4-4-6-6-6-8-8-8-8-8b-8-6-8-8b-8b-8-6----------------|
D|-------2-4/6--4-6------------------------------------------------------|
A|--2/4---------------------------------------------------1-2-2-1--------|
E|-----------------------------------------------------------------4-2---|


E|------------------------------------------------------------------------|
B|------------------------------------------------------------------------|
G|------------------------------------------------------------------------|
D|------------------------------------------------------------------------|
A|----------------------------------------------------------11-13-13-14---|
E|--2-0-2-2b-0-0-0-0-2-2-2-4-4-4-6-6-7-7-9-9-11-11-11-11b-9---------------|


E|---------------------------------------------------------------------|
B|---------------------------------------------------------------------|
G|-------------------11-11------11b-11---------------------------------|
D|-----11-11-14--14---------14----------14--11---13-14-14-14--13--13---|
A|--14-----------------------------------------------------------------|
E|---------------------------------------------------------------------|


E|--------------------------------------------------------------------|
B|--------------------------------------------------------------------|
G|--------------------------------------------------------------------|
D|--11-11-11-11-11-11-13-14-14-13-14-13-11-11--11/13--13-13\11-11\9---|
A|--------------------------------------------------------------------|
E|--------------------------------------------------------------------|


E|------------------|
B|------------------|
G|------------------|
D|------------------|
A|--9\8-8\6-6\4-4---|
E|------------------|


Repetição Refrão

Repetição Verso

Variação do Refrão:

A5           F#5
 You're in a laundry room,
A5           F#5
 You're in a laundry room,
A5           F#5
 You're in a laundry room,
A5           F#5            G#5
 Conclusion came to you, ohh
    Composição: Kurt CobainColaboração e revisão:
    • João Victor
    • seu madruga

    Comentários 6

    • lucas lucas: Postado em 09/11/2014 21:03

      Qual a afinaçao to em duvida ?

    • pedro.antonio.33671748 pedro.antonio.33671748: Postado em 30/03/2014 00:20

      essa merece video aula

    • end end: Postado em 25/10/2012 19:30

      quem disse que esse é o nome , eles chamam assim ou chamam de Laundry Room

    • lorycobain lorycobain: Postado em 23/09/2012 15:00

      realmente e bem facil

    • idiots idiots: Postado em 28/05/2012 23:05

      certinha a cifra

    • gabba gabba: Postado em 08/01/2011 14:38

      cara essa musica é mt loka mano

    conseguiu tocar?

    • alisson.figueiredocarreiro
    • isaprimon
    • Josef
    • alvaro.telesmoreira.58
    • Matheus
    • lucas
    • arthur.henrique.10690203
    • •••
    Pedro Henrique341 visualizações
      ver covers de outras músicas »
      0:00 / 0:00

      Capítulos

        2 versões de baixoexibiçõescontribuição e correção
        2 versões de bateriaexibiçõescontribuição e correção
        2 versões de Guitar Proformatodownloadscontribuição
        play/pausefechar subir/descer velocidade
        6ª corda E5ª corda A4ª corda D3ª corda G2ª corda B1ª corda E
          acordes
          publicidad
          fechar
          ok