Something In The Way

Nirvana

 Nirvana
Tom: D
		
(intro - também tocada durante a música)


E|--------------------|
B|--------------------|
G|--------------------|
D|-4--4-4-4-0--0-0-0--|
A|-4--4-4-4-0--0-0-0--|
D|-4--4-4-4-0--0-0-0--|


Underneath the bridge
The tarp has sprung a leak
And the animals I've trapped
All become my pets
And I give them enough of grass
And the drippings from the ceiling
It's ok to eat fish
Cause I don't have any feelings

 passagem pro refrão:


E|------------------------------------|
B|----------3--3-3--------------------|
G|----------2--2-2--------------------|   4x
D|-4--4-4-4-0--0-0-4--4-4-4-0--0-0-0--|
A|-4--4-4-4--------4--4-4-4-0--0-0-0--|
D|-4--4-4-4--------4--4-4-4-0--0-0-0--|



F5               D5
Something in the way,  Mmmm...
Something in the way, yeah,  Mmmm...

Comentários 3

  • sodinha2011 sodinha2011: Postado em 25/05/2014 09:35

    como pode ter a versão mais simplificada que essa?

  • Matheus Matheus: Postado em 21/08/2013 11:03

    Mais facil que Come as You Are

  • gustavorose gustavorose: Postado em 07/08/2011 15:37

    Na parte "Something in the way, Mmmm..." toca o F#5 eD7 duas vezes em cada frase !

Composição: Álvaro Gomes / Dave Grohl / Keisha Spivey / Kurt Cobain / Valmont
Esse não é o compositor? Avise-nos.
Contribuição: Krist Novoselic Correções: Charles , keu e mais 2 »
Exibir acordes »
publicidade
fechar