O Melhor de Mim Pra Você

Nk05

Sem foto do Nk05 Compositor: Rafael
Tom: G
		
(intro)


E |------------------------------------------------------------
B |-----------0---------0-----0---------3---------3-----3------
G |-----------0---------0-----0---------0---------0-----0------
D |---4-4-4-4---4-4-4-4---4-4---5-5-5-5---5-5-5-5---5-5--------
A |--2-2-2-2---2-2-2-2---2-2-----------------------------------
E |------------------------------------------------------------


(G5 C5 A#5 A5) 4x

G6          C5
Olhe pro lado e veja,
A#5     A5
estou aqui com você;
G5              C5     (Abafado)
Me espere e preceba,
A#5          A5
Posso te ajudar.

G5         C5
Feche os olhos,
        A#5
Esqueça,
             A5
Que você é apenas,
               D5  A5
Uma parte do mundo.

C5              E5
Não deixe para si,
C5            E5
O que te faz mal,
B5           G5     (Pré-Refrão)
e bem mais tarde,
A#5          F#5
Tudo vai melhorar.

(refrão)

G5 C5 A#5 A5
Entenda,
        D5 C5 A#5  C5
que não pode ser assim,
G5   C5 A#5    A5
Brincar de sofrer,
         D5  C5 A#5 A5
e se perder por ai.
G5    C5  A#5 A5      D5 C5 A#5 C5
Mas, quem sou eu pra te explicar,
G5   C5 A#5       A5
Só acho que não devo,
      D5 C5 A#5 C5
Te fazer chorar.

(G5 C5 A#5 A5) 2x

G5
Esqueça,
C5
Tudo aquilo que passou...
A#5
Viva,
A5
Tudo o que você sonhou!

G5     C5
Felicidade,
                  A#5
É pra mim e pra você,
               A5        (Abafado)
Guardei o melhor de mim,
       D5         A5
Só pra te mostrar.

C5    E5 C5          E5
Eu posso te fazer feliz,
A#5               G5 F#5
Me deixe apenas falar...

(solo)

E |-----------------------------------------------------
B |-3/5-5-5-5-5-5-7-5-8-5-5-----------------------------
G |-------------------------7-7-7-7-7-------------------
D |-----------------------------------5-7-5-8-----------
A |-------------------------------------------7-5-0-----
E |-----------------------------------------------------



E |-----------------------------------------------------
B |-3/5-5-5-5-5-5-7-5-8-7-7-7/10-8----11-8~-8-8-8-8-----
G |--------------------------------10-------------------
D |-----------------------------------------------------
A |-----------------------------------------------------
E |-----------------------------------------------------


(refrão)

G5 C5 A#5 A5
Entenda,
        D5 C5 A#5  C5
que não pode ser assim,
G5   C5 A#5    A5
Brincar de sofrer,
         D5  C5 A#5 A5
e se perder por ai.
G5    C5  A#5 A5      D5 C5 A#5 C5
Mas, quem sou eu pra te explicar,
G5   C5    A#5       A5
Só acho que não devo,
      D5 C5 A#5 C5
Te fazer chorar.


    G5 C5 A#5 A5
A |--a--a--a...



    G5 C5 A#5 A5
A |--a--a--a .
242 exibições

Comentários 0

Composição: Sabe quem é o compositor? Envie pra gente. Contribuição: Nk05 Correções: faellmota »
Consegui tocarAinda não conseguiram tocar essa música. Seja o primeiro!
    Não consegui tocar
    Exibir acordes »
    publicidade
    fechar