Memorias Del Olvido

No Te Va Gustar

 No Te Va Gustar
Tom: G
		
Intro: D9/11  Am7  C  Em  Bm


    D9/11                      Am7                     C                 Em      Bm
E|------------------------------------0-------0-----------0-----------------0-------2-----|
B|-------3----------3-------------------1-------1-----------1-----------------0-------3---|
G|----------0----------0------------------0-------0-----------0-------------------------4-|
D|----4-------4----------4-------2----------------------2-------------------------4-------|
A|-5-------------5----------5-0-------------0-------0-3---------3-3-2-----2-----2---------|
E|--------------------------------------------------------------------3-0-----------------|


D9/11               Am7
  Me pasaron tantas cosas
C                    Em   Bm
  y no me acuerdo de nada.
D9/11                   Am7
  Sólo del viento y tus ojos.
C                   Em   Bm
  De llorar a carcajadas.

(Un solo golpe por acorde)
D9/11                   Am7
  No se cuánto habrá pasado
C                   Em   Bm
  desde cuando te leía.
D9/11                Am7
  Nunca quise darme cuenta
C                  Em   Bm
  que no era idea mía.

      D9/11         Am7     C              Em    Bm
E|-------------------------------------------------------|
B|-------------------------------------------------------|
G|-------------------------------------------------------|
D|--5-4ds--5-4--------------4-5------------------4-5-----|
A|--------------5s3ds-----7-----7--3-2-----5-7s2-----5ds-|
E|-------------------------------------3-0---------------|


D9/11                    Am7
  Hoy no es que rompa cadenas,
C                    Em   Bm
  sólo me doy por vencido
D9/11             Am7
  y te perdono por todo,
C                     Em   Bm
  por venir y haberte ido.

(Riff 1)           (Riff 1)
D9/11              Am7
  Si la pena se supera
(Riff 2)               (Riff 3)
C                      Em   Bm
  a mi me importa muy poco.
(Riff 1)               (Riff 1)
D9/11                  Am7
  No esperaba que así fuera, mi amor.
(Riff 2)              (Riff 3)
C                     Em   Bm
  Si aún sueño que te toco.

G                            Dm
  No se de un tiempo a esta parte.
      Am7                   Em   Bm
No entiendo cómo pude desarmarme.

      D9/11         Am7     C              Em    Bm
E|---------------------------------------------------------|
B|---------------------------------------------------------|
G|---------------------------------------------------------|
D|--5-4ds--5-4----------------4-5------------------4-5-----|
A|--------------5s3ds-------7-----7--3-2-----5-7s2-----5ds-|
E|---------------------------------------3-0---------------|


D9/11                 Am7
  Me sobraron tantas cosas
C                     Em   Bm
  que no pude darte a tiempo.
D9/11                 Am7
  O tal vez nunca exististe.
C                    Em   Bm
  Fuiste mi mejor invento.
(Riff 1)              (Riff 1)
D9/11                 Am7
  Hoy mis ojos no te ven,
(Riff 2)              (Riff 3)
C                    Em   Bm
  hoy mi boca no te nombra.
(Riff 1)                (Riff 1)
D9/11                  Am7
  Nadie sabe qué me hiciste, mi amor.
(Riff 2)               (Riff 3)
C                      Em   Bm
  Sólo mi cuerpo y tu sombra.

G                            Dm
  No se de un tiempo a esta parte.
      Am                    Em   Bm
No entiendo cómo pude desarmarme.
G                               Dm
  Yo no se de un tiempo a esta parte.
       Am                   C
No entiendo cómo pude desarmarme o cómo terminó.

      D9/11         Am7     C              Em    Bm
E|-------------------------------------------------------|
B|-------------------------------------------------------|
G|-------------------------------------------------------|
D|--5-4ds--5-4--------------4-5------------------4-5-----|
A|--------------5s3ds-----7-----7--3-2-----5-7s2---------|
E|-------------------------------------3-0---------------|

No, no, no, no. Cómo terminó.

      D9/11         Am7     C           Em
E|---------------------------------------------------------|
B|---------------------------------------------------------|
G|--------------------------------5-4----------------------|
D|--5-4ds--5-4--------------4-5----------------------------|
A|--------------5s3ds-----7-----7-----2ds------------------|
E|------------------------------------0ds------------------|


(Riff 1)

E|----5-2-3ds----|
B|--5------------|
G|---------------|


(Riff 2)            (Riff 3)

E|----3-2--------|  e|--3-2----------|
B|--5-----5ds----|  B|------3ds------|
G|---------------|  G|---------------|
9.770 exibições

Comentários 0

Composição: Mark Sheehan
Esse não é o compositor? Avise-nos.
Contribuição: alves de arrasc Correções: Jeferson »
Consegui tocarAinda não conseguiram tocar essa música. Seja o primeiro!
    Não consegui tocar
    Exibir acordes »
    publicidade
    fechar