Eu e Você

Novo Som

 Novo Som
Tom: E
		

Intro: A F#m C#m/E E/D D D/E E A F#m C#m/E E/D D D/E
E|-------4/5--5/7---5-5/7-4----2-4-5---4/5--5/7--------|
B|-----------------------------------------------------|
G|-----------------------------------------------------|
D|-----------------------------------------------------|
A|-----------------------------------------------------|
E|-----------------------------------------------------|



E|-------4/5--5/7---5-5/7-4----2-4-5---4/5--5/7--------|
B|-----------------------------------------------------|
G|-----------------------------------------------------|
D|-----------------------------------------------------|
A|-----------------------------------------------------|
E|-----------------------------------------------------|


 A       A/G                          D7
Foi você     quem fez nascer essa canção de amor
      Bm7           Bm5-/7      E/D         E4 D5 Bm/E
que traz um pouco do meu coração.
 A       G            D/F#          C#/F            D7
foi você   quem mereceu    o amor que Deus me deu para te dar
   Bm7           Bm7/5-      E/D             C#/F            F# F    C# F
você nasceu pra mim eu pra você, e te amar é mais que te querer.
  Ebm                           B
o nosso amor é mais que a primavera flor e algo assim,
G#                          C#4 C# B B/C#
muito além da terra, céu e mar.
          F#     C#/F     Ebm                       B
se um dia magoei,  perdoa meu amor, eu não fiz por querer,
          Bm                        C# B/C#             A F# C#/F D#m B
eu e você somos uma forma de expressão do amor de Deus.


( F# C#/F D#m B C# )
E|--------------------------------------------------9--7-6--|
B|-------------7------------7--6----------------7-----------|
G|-----6----8------6---8-----------6-------6----------------|
D|-------------------------------------8--------------------|
A|----------------------------------------------------------|
E|----------------------------------------------------------|



E|-------4/6---4/6---4--------------------4--6--4--2--4-----|  
B|---------------------4-----4---7--6--7--------------------|
G|------------------------6---------------------------------|
D|----------------------------------------------------------|
A|----------------------------------------------------------|
E|----------------------------------------------------------|

31.237 exibições

Comentários 0

Composição: Alex Gonzaga
Esse não é o compositor? Avise-nos.
Contribuição: Haniel Correções: dezinhoguitar »
Exibir acordes »
publicidade
fechar