Guarda-me

Novo Som

 Novo Som Compositor: Anderson Freire
Tom: G
		
Intro: G  C  D  Em  C  G  D  C  G
Solo:

E|--------------------------------|--------------------------------|
B|------------------------8-7-8---|--------------------------------|
G|----------7-----9-7-7-7-------4-|5-7-7/9-7---4-5/7-5/7/5-4/5/4---|
D|----5h7/9---9h7-----------------|--------------------------------|
A|--------------------------------|--------------------------------|
E|--------------------------------|--------------------------------|


  G           D       Em             D       C
Cubra-me oh Deus com Tuas asas que nunca envelhecem
        G          C       D
Com a sombra que nunca se vai
  G    D        Em              D        C
Faça nascer o melhor dos meus dias que ainda
 G        C           D     Em
Não se declarou para mim, Senhor
 C              D
Olho pra mim e vejo planos
 C              D
Olho pra mim e vejo o sonho
 C       G        C
De ser eleito por Ti
    C    G             C    D  G
De não perecer neste mundo, e subir
         G          C         D
Pra me encontrar novamente contigo
          G        C      D
Viver o sonho que não lembrarei
              Em        D
Longe das perseguições
           C       G         C            D
Dos meus lábios canções e alegro o teu coração
          G     C          D
Viver um dia guardado no peito
          G     C         D
Romper o céu abraçado em Ti
          Em       D       C    G
Cubra me com Tuas asas me dá proteção
  C              D              G
Quero viver pra ver teu rosto enfim

Solo: G  C  D  Em  C  G  D  C  G

E|--------------------------------|--------------------------------|
B|------------------------8-7-8---|--------------------------------|
G|----------7-----9-7-7-7-------4-|5-7-7/9-7---4-5/7-5/7/5-4/5/4---|
D|----5h7/9---9h7-----------------|--------------------------------|
A|--------------------------------|--------------------------------|
E|--------------------------------|--------------------------------|


(repete tudo)

Parte Final:
  G          C9                 G
Cubra-me oh Deus, guarda-me oh Deus
        C             D     G
Quero viver pro Teu rosto olhar
2.515 exibições

Comentários 0

Composição: Anderson Freire
Esse não é o compositor? Avise-nos.
Contribuição: Jesiel
Exibir acordes »
publicidade
fechar