O Melhor Lugar do Mundo

Novo Tom

 Novo Tom Compositor: Lineu Soares e Valdecir Lima
Tom: C
		
Intro:  D C Em F C G
       (D C Em F C D)
       (G C G C G)

Intro:

E|--7-5-3-5-5-7-8-8-8-7-7-5-3-3h4-5-5-5-5-3-3----------|
B|--------------------------------------------5-3-1-3--|
G|-----------------------------------------------------|
D|-----------------------------------------------------|
A|-----------------------------------------------------|
E|-----------------------------------------------------|



E|-7-5-3-5-5-7-8-8-8-7-7-5-3-3h4-5-5-5-5-3-0-3-5-5-7-3---0---0----------|
B|-----------------------------------------------------3---3---3--------|
G|----------------------------------------------------------------------|
D|----------------------------------------------------------------------|
A|----------------------------------------------------------------------|
E|----------------------------------------------------------------------|


G          D              Em
No mundo ainda existem belezas
 C             D                   G   C/G  G
que alegram a vida e nos fazem sonhar.
            D            Em  C
Recantos felizes da natureza,
                     G                  D
onde qualquer ser humano gostaria de estar.

G       D/F#       Em   D
Mas de todos os lugares
C         D             G   Am  G/B
o mais bonito e inspirador
C	D   Em       C   Am            D           G    D/F#
É onde fico   em oração     junto aos pés do Salvador

     Em            C           D           G   D/F#
O melhor lugar do mundo é aos pés do Salvador,
   Em            C           D              G
É ali onde a esperança trás alívio ao sofredor.
    Am              D            G         C
É ali onde eu me encontro com a fonte do amor.
      D             G/B  C        D           G   G/B     C
O melhor lugar do mundo    é aos pés do Salvador!

G             D                   Em
sonhamos com casas que tenham conforto,
 C             D                   G   C/G  G
talvez numa encosta com vista pro mar
            D                  Em  C                  G                D
Mas as maravilhas não fazem sentido  se Cristo não está em primeiro lugar


G      D/F#         Em   D  C          D             G    Am  G/B
Ao sentir a paz de Deus,      o seu poder e amor profundo
C           D   Em        C   Am          D   Em
Eu posso estar      onde for,    estou feliz
              C         D            G      D/F#
por me encontrar no melhor lugar do mundo

     Em            C           D           G   D/F#
O melhor lugar do mundo é aos pés do Salvador,
   Em             C           D             G
É ali onde a esperança trás alívio ao sofredor.
    Am              D            G         C
É ali onde eu me encontro com a fonte do amor.
      D             G/B  C        D           G
O melhor lugar do mundo    é aos pés do Salvador!

    Am              D            G         C
É ali onde eu me encontro com a fonte do amor.
      D             G/B  C        D           G   C/G     G
O melhor lugar do mundo    é aos pés do Salvador!

Comentários 4

  • amanda camile amanda camile: Postado em 01/07/2013 15:44

    mt boa devia ter video aula pra saber o tempo d solo

  • mmc_cocas mmc_cocas: Postado em 02/01/2013 05:43

    é muito bom qdo estamos ser entregue as benção de Deus

  • chicletth chicletth: Postado em 14/01/2012 13:20

    Gosto muito!

  • kleyda1 kleyda1: Postado em 28/10/2011 22:01

    facil

Composição: Lineu Soares e Valdecir Lima
Esse não é o compositor? Avise-nos.
Contribuição: Binho Correções: renanfz , renanfz e mais 6 »
Exibir acordes »
publicidade
fechar