A Maré

Nx Zero

 Nx Zero Compositor: Dih
Tom: A
		
Intro 2x:

       F#m        C#m       D7m
E|-------5-----------------2----------------------|
B|-----7--------5--------2---------2-2------------|
G|---6--------6--------2-------2---2-2------------|
D|-4--------6--------0-------0--------------------|
A|--------4---------------------------------------|
E|------------------------------------------------|


Verso 2x:

     F#m        C#m       D7m
E|-------5-----------------2----------------------|
B|-----7--------5--------2------------------------|
G|---6--------6--------2-------2------------------|
D|-4--------6--------0-------0--------------------|
A|--------4---------------------------------------|
E|------------------------------------------------|



       F#m        C#m       D7m
E|-------5-----------------2----------------------|
B|-----7--------5--------2---------2-2------------|
G|---6--------6--------2-------2---2-2------------|
D|-4--------6--------0-------0--------------------|
A|--------4---------------------------------------|
E|------------------------------------------------|


E Dm7
E|-2-----| 
B|--2----|
G|---2---|   (2x)
D|----4--|
A|-------|
E|-------|


Refrão:

 D5 E5 F#5 E5
E|------------------------------------------------------
B|-14--12--10--9----------------------------------------
G|------------------------------------------------------ (2x)
D|-11---9--7---6----------------------------------------
A|------------------------------------------------------
E|------------------------------------------------------


( D5 E5 )

Interlúdio:

E|------------------------------------------------------
B|-9h10-9-7h9-9h10-9-7-5--------------------------------
G|-----------------------6h7-77-6-4h6------------------
D|------------------------------------------------------
A|------------------------------------------------------
E|------------------------------------------------------



E|------------5h7-5-4-4h5-9-7-5-4-0-0h2-----------------
B|-9h10-9-7h9-------------------------------------------
G|------------------------------------------------------
D|------------------------------------------------------
A|------------------------------------------------------
E|------------------------------------------------------


Verso:

E|----17--17-----------------19---16---17--17--------------------------------
B|--14--14--14-17-14-17-14-14--14----14--14--14-17-14-17-14-14-14-14p15-14---
G|---------------------------------------------------------------------------
D|--------------------------------------------------------------------------- (2X)
A|---------------------------------------------------------------------------
E|---------------------------------------------------------------------------


( F#m C#m D7m ) (2x)

Refrão:

 D5 E5 F#5 E5
E|------------------------------------------------------
B|-14--12--10--9----------------------------------------
G|------------------------------------------------------ (2x)
D|-11---9--7---6----------------------------------------
A|------------------------------------------------------
E|------------------------------------------------------


D5 E5


Ponte :

E|------------------------------------------------------
B|------------------------------------------------------
G|------------------------------------------------------
D|-9-11-9-7-9---6-7-6-4-6---9-11-9-7-9---6-7-9-11-14----
A|------------------------------------------------------
E|-7-9--7-5-7---4-5-4-2-4---7-9--7-5-7---4-5-7-9--12----



E|------------------------------------------------------
B|------------------------------------------------------
G|-9-11-9-4-6---9-11-13-11-9-11-14----------------------
D|------------------------------------------------------
A|-7-9--7-2-4---7-9--11-9--7-9--12----------------------
E|------------------------------------------------------



E|--------------------
B|--------------------
G|--------------------
D|-9-11-9-7-9---6-7-9-
A|--------------------
E|-7-9--7-5-7---4-5-7-


Refrão:
2x D5 E5 F#5 E5

2x D E F#m

4x E D

Comentários 1

  • feefontizinho feefontizinho: Postado em 31/12/2012 09:46

    muito bom pra combinar com a base

Exibir acordes »
publicidade
fechar