Cedo Ou Tarde

Nx Zero

 Nx Zero
Tom: B
		
Primeira Parte:


   E               G#m7
E|------------------------------------------|
B|-------0---------------0------------------|
G|---4------4--------8------8---------------|
D|-2---2------2----6---6------6-------------|
A|------------------------------------------|
E|------------------------------------------|



   B5                F#11
E|------------------------------------------|
B|--------0----------------0----------------|
G|---11------11--------6------6-------------|
D|-9----9-------9----4---4------4-----------|
A|------------------------------------------|
E|------------------------------------------|


        E
Quando perco a fé
      G#m7
Fico sem controle
      B5
E me sinto mal
    F#11
Sem esperança
      E
E ao meu redor
     G#m7
A inveja vai
   B5
Fazendo as pessoas
      F#11
Se odiarem mais
    E
Me sinto só (me sinto só)
     G#m7
Mas sei que não estou (mas sei que não estou)
      B5           F#11
Pois levo você no pensamento
     E
Meu medo se vai (meu medo se vai)
     G#m7
Recupero a fé (recupero a fé)
   B5
E sinto que algum dia
       F#11
Ainda vou te ver
 E
Cedo ou tarde (cedo ou tarde)


   E
E|------------------------------------------|
B|-0----0-----------------------------------|
G|-4----4-----------------------------------|
D|-2----2-----------------------------------|
A|------------------------------------------|
E|------------------------------------------|

   ↑    ↑

Primeiro Refrão:

 G#m7
Cedo ou tarde
         E
A gente vai se encontrar
 B5                  F#11
Tenho certeza, numa bem melhor
 G#m7                      E              B5
Sei que quando canto você pode me escutar


Segunda Parte:

   E            G#m7
Você me faz querer viver
  B5
E o que é nosso
   F#11
Está guardado
    E          G#m7
Em mim e em você
    B5         F#11
E apenas isso basta

(Riff)
    E
Me sinto só (me sinto só)
     G#m7
Mas sei que não estou (mas sei que não estou)
      B5           F#11
Pois levo você no pensamento
     E
Meu medo se vai (meu medo se vai)
     G#m7
Recupero a fé (recupero a fé)
   B5                        F#11
E sinto que algum dia ainda vou te ver
 E
Cedo ou tarde (cedo ou tarde)


   E
E|------------------------------------------|
B|-0----0-----------------------------------|
G|-4----4-----------------------------------|
D|-2----2-----------------------------------|
A|------------------------------------------|
E|------------------------------------------|

   ↑    ↑

Segundo Refrão:

 G#m7
Cedo ou tarde
         E
A gente vai se encontrar
 B5                  F#11
Tenho certeza, numa bem melhor
 G#m7                      E              B5  F#11
Sei que quando canto você pode me escutar

( G#m7  E  B5  F#11 )  (2x)

 G#m7
Cedo ou tarde
         E
A gente vai se encontrar
 B5                  F#11
Tenho certeza, numa bem melhor
 G#m7                      E              B5  F#11
Sei que quando canto você pode me escutar

 G#m7
Cedo ou tarde
         E
A gente vai se encontrar
 B5                  F#11
Tenho certeza, numa bem melhor
 G#m7                      E              B5
Sei que quando canto você pode me escutar


   B5
E|------------------------------------------|
B|--------0------------------0--------------|
G|---11------11--------11------11-----------|
D|-9----9-------9----9----9-------9---------|
A|------------------------------------------|
E|------------------------------------------|


( E9 )
Texto Colunas
Alterar tom ½ tom ½ tom
afinação acordes na letra esconder tabs mais »

Comentários (32)

  • Caio Caio: Postado em 14/03/2014 10:27

    Toca demais, mt boa a musica, ja o canto, nem tanto.. kkk

  • luanchianca luanchianca: Postado em 10/03/2014 18:53

    Música muito boa, mas esse cara aí não ensina muito bem. Toca muito, mas não gostei da aula.

    • luanchianca luanchianca: Postado em 10/03/2014 18:55

      Quem sabe fizessem a versão só violão e só guitarra ou colocassem outro músico com ele para ensinar por vez. Só ele, não deu conta.

  • carlos carlos: Postado em 22/02/2014 14:51

    perfeita

  • murillo.bryan.09 murillo.bryan.09: Postado em 19/02/2014 15:11

    A que o Nx Zero canta com o Chorão é melhor.

  • Cleberson Cleberson: Postado em 13/02/2014 13:25

    Música perfeita.

  • Cleberson Cleberson: Postado em 12/02/2014 17:46

    Perfeita. Essa musica fez historia em minha vida.

  • Lud:D Lud:D: Postado em 01/11/2013 17:52

    eles tocam muito so que são desafinados "no vc tocando"

  • gladyston gladyston: Postado em 25/09/2012 12:55

    Curtam meu vídeo dessa música no link "Você Tocando"... Vlw, Abraços a todos!

    • luanchianca luanchianca: Postado em 10/03/2014 18:58

      Cara, tu toca muito bem mesmo, só precisa aperfeiçoar um pouco cantando. Desafinou um pouco, mas toca muito!

Exibindo 11 de 32 comentários Mostrar mais ver todos »
Composição: Di Ferrero / Gee Rocha
Esse não é o compositor? Avise-nos.
Contribuição: Leon Fabri Correções: v.inny , DÙH e mais 6 »
  1. Tudo Que Você Quiser - Luan Santana Manteve-se 6.037 exibições
  2. Lepo Lepo - Psirico Manteve-se 4.468 exibições
  3. Mozão - Lucas Lucco Manteve-se 4.227 exibições
  4. Logo Eu - Jorge e Mateus Manteve-se 3.853 exibições
  5. Gaveta - Fernando e Sorocaba Manteve-se 3.342 exibições
  6. Pra Você - Onze:20 Manteve-se 3.171 exibições
  7. Só Os Loucos Sabem - Charlie Brown Jr. Manteve-se 3.013 exibições
  8. Tempo Perdido - Legião Urbana Manteve-se 2.451 exibições
  9. Fui Fiel - Gusttavo Lima Manteve-se 2.434 exibições
  10. Na Linha do Tempo - Victor e Leo Manteve-se 2.183 exibições
  1. Jorge e Mateus- Manteve-se 22.974 exibições
  2. Legião Urbana- Manteve-se 20.295 exibições
  3. Luan Santana- Manteve-se 17.553 exibições
  4. Charlie Brown Jr.- Manteve-se 17.249 exibições
  5. Fernandinho- Manteve-se 14.873 exibições
  6. Thalles Roberto- Manteve-se 11.307 exibições
  7. Católicas- Manteve-se 10.786 exibições
  8. Victor e Leo- Manteve-se 10.519 exibições
  9. Gusttavo Lima- Manteve-se 10.295 exibições
  10. Aline Barros- Manteve-se 10.226 exibições
Exibir acordes »

Cifras e tabs

Fórum Cifra Club

Aprenda

Cifra Club News

Mais Serviços Cifra Club ID

Studio Sol

©1996 - 2014 Cifra Club · o primeiro, maior e mais acessado do Brasil · 329 mil músicas · 5.9 milhões pessoas cadastradas

publicidade
fechar