Zerar e Recomeçar

Nx Zero

 Nx Zero
Tom: B
		
(intro)


E |----------------------------------------------------------------------|
B |--------------4-------6---6h7h6----7---9---11-11--11---11---11h12h11--|
G |---3h4--4/6-6---6/8-8---8--------8---8---8------8----8----8-----------|
D |----------------------------------------------------------------------|



E |---------------------------------------------------------------------------|
B |--------------4-------6---6h7h6----7---9---11-11---11---11---11---11---11--|
G |---3h4--4/6-6---6/8-8---8--------8---8---8-------8----8----8----8----8-----|
D |---------------------------------------------------------------------------|




E |----------|
B |----------|
G |----------| abafado
D |-6-8-9--|


(riff 2)

E |------------------------------------| (nessa parte não da pra escutar
B |-----7---11----9-----11-----7-------| direito o que é tocado, mas com
G |--9---9------9----11----10----------| essa 'notas' da pra improvisar
D |------------------------------------| alguma coisa)


(riff 3)                                          (riff 4)

E |---------------------------------|		e|------------------------------------|
B |---------------------------------|		B|------------------------------------|
G |--8/11--15/6--8/11--15/6--6/8----|  		G|--8/11--15/6--8/11--15/6--6/10/11---|
D |---------------------------------|		D|------------------------------------|


(riff 5)

E |--------------------------------------------------|
B |--------------------------------------------------|
G|6/8-8888/15-151515--15/88888/18-18181818--8888/6--|
D |--------------------------------------------------|


(final)

E |----------------------------------------------------------------------|
B |--------------4-------6---6h7h6----7---9---11-11--11---11---11h12h11--|
G |---3h4--4/6-6---6/8-8---8--------8---8---8------8----8----8-----------|
D |----------------------------------------------------------------------|



E |-----------------------------------------------|
B |--------------4-------6---6h7h6----------------|
G |---3h4--4/6-6---6/8-8---8--------11-10-6/8/6---|
D |-----------------------------------------------|


(intro 4x) B C# D#m

(riff 1 e 2)

B         D#                  F#                    C#        D#
Eu estou aqui,então diga pra mim o que eu nunca consegui entender.
               F#             C#                                 B
Não te conheço mais, viramos opostos como óleo e água, sem perceber.
(riff 3)       D#m               C#                      B       C#
Quanto tempo faz que não nos falamos?Eu nem me lembro mais porque...

(refrão)
                   B             F#        D#m       C#m
Certas coisas não têm sentido e nem razão para acontecer.
       B          F#         D#m        C#m
Sentimentos bons vêm e vão, temos que viver.,
          B             F#     C#          D#m
Abra os olhos, siga em frente, nada é pra sempre,
B           D#       C#m
Vamos zerar e recomeçar.

(repete intro)

(riff 1 e 2)

B            D#                    F#                        C#           D#
Já faz algum tempo, já faz tempo demais que o nosso velho orgulho nos separou.
               F#              C#                                         B
A culpa é de quem não assume o erro e não perdoa aquele que sempre te perdoou.
(riff 4)       D#m               C#                      B       C#
Quanto tempo faz que não nos falamos?Eu nem me lembro mais porque...

(repete refrão)

D#m
Êeeeeee....
  ( B  C#  D#m ) (4x)
uooooooaoaoaoaoa oa oa!

(repete refrão)

(riff 5)

B           F#       G#m
Vamos zerar e recomeçar...

( B  C#  D#m )
Eu estou aqui...Yeah..
Eu estou aqui... Yeah..

Comentários 0

Composição: Angel Helaire / Corey Cunningham / Kevin Bard
Esse não é o compositor? Avise-nos.
Contribuição: Khalil Correções: Khalil e mais 1 »
Exibir acordes »
publicidade
fechar