Anjos

O Rappa

 O Rappa
Intro 
G|------------------------------------------------|
D|------------------------------------------------|
A|--9~-99-8--6~-66-4--------------------------9~--| 
E|-------------------6~-66-4-6~-66-4-6~--66-9-----|
B|------------------------------------------------|

Verso
G|--------------------------------------|
D|--------------------------------------|
A|--------------------------------------|
E|-2~-22-1---------6~-66-4-6~-66-9------|
B|---------4~-44-6----------------------| 

Refrão
G|-------------------------------------------------|
D|-------------------------------------------------|
A|-------------------------------------------------|
E|-2~-22-1---------6~-66-4-6~-66-4-6~--6p9-6p9-4-2~|
B|---------4~-44-6---------------------------------|

(Verso)

Comentários (3)

  • João Vitor Lisboa João Vitor Lisboa: Postado em 24/11/2013 12:42

    é só tocar com uma oitava na corda A

  • danilogaspar_1 danilogaspar_1: Postado em 08/10/2013 18:59

    tablature para baixo de 4 cordas!!!

    • João Vitor Lisboa João Vitor Lisboa: Postado em 24/11/2013 12:44

      é só tocar com uma oitava na corda A ou afinar em D a corda E

Composição: Marcelo Falcão
Esse não é o compositor? Avise-nos.
Contribuição: João Vitor Lisboa
  1. Tudo Que Você Quiser - Luan Santana Manteve-se 5.417 exibições
  2. Lepo Lepo - Psirico Manteve-se 3.901 exibições
  3. Mozão - Lucas Lucco Manteve-se 3.749 exibições
  4. Logo Eu - Jorge e Mateus Manteve-se 3.341 exibições
  5. Gaveta - Fernando e Sorocaba Manteve-se 2.999 exibições
  6. Só Os Loucos Sabem - Charlie Brown Jr. Manteve-se 2.698 exibições
  7. Pra Você - Onze:20 Manteve-se 2.391 exibições
  8. Tempo Perdido - Legião Urbana Manteve-se 2.189 exibições
  9. Fui Fiel - Gusttavo Lima Manteve-se 2.019 exibições
  10. Na Linha do Tempo - Victor e Leo Manteve-se 1.925 exibições
  1. Jorge e Mateus- Manteve-se 20.025 exibições
  2. Legião Urbana- Manteve-se 17.810 exibições
  3. Luan Santana- Manteve-se 15.901 exibições
  4. Charlie Brown Jr.- Manteve-se 15.521 exibições
  5. Fernandinho- Manteve-se 13.364 exibições
  6. Thalles Roberto- Manteve-se 10.046 exibições
  7. Aline Barros- Manteve-se 9.582 exibições
  8. Católicas- Manteve-se 9.431 exibições
  9. Victor e Leo- Manteve-se 9.367 exibições
  10. Gusttavo Lima- Manteve-se 8.996 exibições

Cifras e tabs

Fórum Cifra Club

Aprenda

Cifra Club News

Mais Serviços Cifra Club ID

Studio Sol

©1996 - 2014 Cifra Club · o primeiro, maior e mais acessado do Brasil · 329 mil músicas · 5.9 milhões pessoas cadastradas

publicidade
fechar