Minha Alma

O Rappa

 O Rappa
G ------------------------------------------------
D ------------------------------------------------
A ---------------------------------------2----5---
E ---5----5-5---5-----5-5---5----5-5--5-----------
A minha alma tá armada
E apontada para a cara
Do sossego (sego...)
Pois paz sem voz 
Pois paz sem voz
Não é paz é medo, (medo)
As vezes eu falo com a vida
Às vezes é ela quem diz 
Qual a paz que eu não quero
Conservar
Para tentar ser feliz

G ---------------
D ---------------
A --5--7---------
E --------5-5-5--

As grades do condomínio
São para trazer proteção
Mas também trazem a dúvida
Se é você que está nessa prisão
Me abrace e me dê um beijo
Faça um filho comigo
Mas não me deixe sentar 
Na poltrona  no dia de domingo,
Procurando novas drogas
De aluguel nesse vídeo 
Coagido é pela paz
Que eu não quero 
Seguir admitindo 



_______________________________________________________
Contribuição: Fabio(voodoofab@msn.com)

Comentários 0

Composição: Beautiful Creatures / Buzz Clifford / Dani Mariuzzo / Diógenes Kafé / Eric L. Brooks / Finho / Jack / Norman Spann / Solomon Linda / Zuzuca
Esse não é o compositor? Avise-nos.
Consegui tocarAinda não conseguiram tocar essa música. Seja o primeiro!
    Não consegui tocar
    publicidade
    fechar