Monstro Invisível

O Rappa

 O Rappa
Introdução e Riff principal:  

G|-------------------------------------------------------------
D|-------------------------------------------------------------
A|----------------------6-------------------------------6------
E|-6----4-6--4-6----6-9---9-6----6----4-6-6--4-6----6-9---9--6-

Refrão:

G|-------------------------------------------------------------
D|-------------------------------------------------------------
A|-----8-9-9---9-8--6-6-6---6-8--------6-8---------------------
E|-6-6--------------------------6-6-6------6-6-6---------------
2.676 exibições

Comentários 0

Composição: Beautiful Creatures / Buzz Clifford / Diógenes Kafé / Finho / Jack / Norman Spann / Solomon Linda / Zuzuca
Esse não é o compositor? Avise-nos.
Contribuição: P.A. Correções: Vinny Neves »
Consegui tocarAinda não conseguiram tocar essa música. Seja o primeiro!
    Não consegui tocar
    publicidade
    fechar