Mulher Cachaça e Ousadia

O Som do Povo

Sem foto do O Som do Povo Compositor: O Som do Povo
Tom: C
		
Intro:
       x3

E|----------------|------------------|
B|----------------|------------------|
G|----------------|------------------|
D|---------5-5-3-2|------------------|
A|-3-333-3--------|5-555-5-7h8p7-5-3~|
E|----------------|------------------|


   Am                         F
Eu tava num bar, comendo água com o paredão que batia
C                             G
Tomava whisky, tomava cachaça numa maior alegria
Am                                 F
Lá pelas tantas, eu fiquei bêbado, que até desmaiei
C                                 G
Quando eu cheguei em casa, nem pergunte que eu não sei:

Am                           F
A cabaeça dóia, uma sede que dava agonia      }
        C                        G             } x2
E um *refrão tinha uma música da mente não saía}

Refrão


E|---------------|---------------|---------------|-----------------|
B|---------------|---------------|---------------|-----------------|
G|---------------|---------------|---------------|-----------------|
D|--------3-2-0-2|--------3-2-0-2|--------3-2-0-2|-----------------|
A|0-000-0--------|---------------|3-333-3--------|2-222-2-3-2-0---0|
E|---------------|1-111-1--------|---------------|--------------3--|


  Am                  F      C                     G
Mulher, chachaça e ousadia, mulher, cachaça e muita putaria
  Am                  F      C                     G
Mulher, chachaça e ousadia, mulher, cachaça e muita putaria


REPETIR TUDO


OBS.: *tem um solinho que é exeutado na segunda parte da música, bem no começo da palavra refrão,que é assim:


E|------------------------------|
B|------------------------------|
G|------------------------------|
D|------------------------------|
A|---------3-5-5/7-5--3---------|
E|3/5-3--5--------------5-3/5-3~|
6.113 exibições

Comentários 0

Exibir acordes »
publicidade
fechar