Tudo é Possível

O Surto

 O Surto
Tom: G
		
(intro) G  Em  C  D


E|-----------------------------------------------------------5-6-5-3-----------|
B|----------------------------------------------------------5---------5-7/3-3--|
G|---------------------------------------------------------5-------------------|
D|-0-5/9---7-9-7--5-5--7-7/9--5--5---7-9-7--5-5--7/9--5------------------------|
A|---------------------------------5-------------------------------------------|
E|-----------------------------------------------------------------------------|



E|-----------------|
B|-----------------|
G|-7-7-7-7-7-7-7-7-|
D|-7-7-7-7-7-7-7-7-|
A|-5-5-5-5-5-5-5-5-|
E|-----------------|

    ( abafado )

 G		    Em
Gy, queria poder te levar
	             C
Fazer o que a gente bem pensar
Cm		        D
Ficar onde fosse preciso

	     C		   G
Sei que pode ser, tudo é possível
	     Em		  G
É só você querer, ficar comigo
		Am		  Cm	           G
Eu posso te esperar, seja quanto for, pro resto da vida

           Am	  	  C		  G
Eu quis o tempo todo, enquanto estivemos perto
	  Am	        C
Eu só não soube como dizer

		G
Mas ainda vou tentar
	               Em
se a sua canção fosse minha
		  C	Cm		      D
você estivesse sozinha, e não precisasse explicar, nada a ninguém
185.963 exibições

Comentários 0

Composição: Kiko Zambianchi
Esse não é o compositor? Avise-nos.
Contribuição: Pedrinho Correções: Pedro988 , Arcara e mais 3 »
Exibir acordes »
publicidade
fechar