Tudo é Possível

O Surto

 O Surto
(solo)
 C|----|-x-------------------|----------------------|(3x)
 H|-x-x|---x-x-x---x---x-x-x-|x-x-x-x---x---x---x-x-|
sd|----|-----0---0-------0---|----0---0---0-----0---|
bd|----|-0-0---------0-------|0-0-------------0-----|

 C|-x-x-x-x---x---x-x-x-|-----------------|
 H|-----0---0-------0---|-----------------|
sd|---------------------|-0-0-0-0-0-0-0-0-|
 f|---------------------|-0-0-0-0-0-0-0-0-|
bd|-0-0---------0-------|-----------------|

(intro)
 C|x-------|(8x)|-x--------|(6x)|-----------| |---------|
 H|--x-x-x-|    |---x--x-x-|    |---x-x-x-x-| |-x-x-x-x-| |-0-0|
sd|----0---|    |------0---|    |-0-----0---| |-----0---|
bd|0-------|    |-0-0------|    |---0-0-----| |-0-0-----|

Refrão:
 C|-x-------------------|----------------------|(3x)
 H|---x-x-x---x---x-x-x-|x-x-x-x---x---x---x-x-|
sd|-----0---0-------0---|----0---0---0-----0---|
bd|-0-0---------0-------|0-0-------------0-----|

 H|-x-x-x-x---x---x-x---|-------|----------------|
sd|-----0---0-----0-----|-0-0-0-|----------------|
t1|---------------------|-------|-0-0-0-0--------|
t2|---------------------|-------|---------0-0----|
 f|---------------------|-------|--------------0-|
bd|-0-0---------0-------|-------|----------------|

 C|-x-----------------|(5x)|-----------------|------------------------|
 r|---x-x-x---x---x-x-|    |-----------------|------------------------|
sd|-----0---------0---|    |-0-0-0-0-0-0-0-0-|------------------------|
t1|-------------------|    |-----------------|-0-----0----------------|
t2|-------------------|    |-----------------|----------0-0-0-0-------| 
 f|-------------------|    |-0-0-0-0-0-0-0-0-|---0-0------------0-0---|
bd|-0-0-----0---0-----|    |-----------------|----------------------0-|

 C|x-------|(8x)|-x--------|(6x)|-----------| |---------|
 H|--x-x-x-|    |---x--x-x-|    |---x-x-x-x-| |-x-x-x-x-| |-0-0|
sd|----0---|    |------0---|    |-0-----0---| |-----0---|
bd|0-------|    |-0-0------|    |---0-0-----| |-0-0-----|

(refrão)
 C|-x-------------------|----------------------|(3x)
 H|---x-x-x---x-----x-x-|x-x-x-x---x---x---x-x-|
sd|-----0---0-------0---|----0---0---0-----0---|
bd|-0-0---------0-------|0-0-------------0-----|

 H|-x-x-x-x---x---x-x---|-------|----------------|
sd|-----0---0-----0-----|-0-0-0-|----------------|
t1|---------------------|-------|-0-0-0-0--------|
t2|---------------------|-------|---------0-0----|
 f|---------------------|-------|--------------0-|
bd|-0-0---------0-------|-------|----------------|

 C|-x-----------------|(5x)|-----------------|------------------------|
 r|---x-x-x---x---x-x-|    |-----------------|------------------------|
sd|-----0---------0---|    |-0-0-0-0-0-0-0-0-|------------------------|
t1|-------------------|    |-----------------|-0-----0----------------|
t2|-------------------|    |-----------------|----------0-0-0-0-------| 
 f|-------------------|    |-0-0-0-0-0-0-0-0-|---0-0------------0-0---|
bd|-0-0-----0---0-----|    |-----------------|----------------------0-|

 C|x-------|(8x)|-x--------|(6x)|-----------| |---------|
 H|--x-x-x-|    |---x--x-x-|    |---x-x-x-x-| |-x-x-x-x-| |-0-0|
sd|----0---|    |------0---|    |-0-----0---| |-----0---|
bd|0-------|    |-0-0------|    |---0-0-----| |-0-0-----|

(refrão)
 C|-x-------------------|----------------------|(3x)
 H|---x-x-x---x---x-x-x-|x-x-x-x---x---x---x-x-|
sd|-----0---0-------0---|----0---0---0-----0---|
bd|-0-0---------0-------|0-0-------------0-----|

 H|-x-x-x-x---x---x-x---|-------|----------------|
sd|-----0---0-----0-----|-0-0-0-|----------------|
t1|---------------------|-------|-0-0-0-0--------|
t2|---------------------|-------|---------0-0----|
 f|---------------------|-------|--------------0-|
bd|-0-0---------0-------|-------|----------------|

 C|-x-------------------|----------------------|(3x)
 H|---x-x-x---x---x-x-x-|x-x-x-x---x---x---x-x-|
sd|-----0---0-------0---|----0---0---0-----0---|
bd|-0-0---------0-------|0-0-------------0-----|

 H|-x-x-x-x---x---x-x---|-------|
sd|-----0---0-----0-----|-0-0-0-|
t1|---------------------|-------|
t2|---------------------|-------|
 f|---------------------|-------|
bd|-0-0---------0-------|-------|

 C|-x-x-x-x---x-------x-|x-x-x-x---x---x---x-x-|(3x)
 H|---------------------|----------------------|
sd|-----0---0-------0---|----0---0---0-----0---|
bd|-0-0---------0-------|0-0-------------0-----|

 H|-x-x-x-x---x---x-x---|---------|
sd|-----0---0-----0-----|-0-------|
t1|---------------------|---0-----|
t2|---------------------|-----0---|
 f|---------------------|-------0-|
bd|-0-0---------0-------|---------|

Comentários 0

Composição: Kiko Zambianchi
Esse não é o compositor? Avise-nos.
Contribuição: Pedro988
Consegui tocarAinda não conseguiram tocar essa música. Seja o primeiro!
    Não consegui tocar
    publicidade
    fechar