Original Prankster

The Offspring

 The Offspring
Intro1:
G----------|-----------------------------------------------------
D----------|-----------------------------------------------------
A--guitar--|--------0-0-3-0-0--5---------0-0-3-0-0--3-5-5-3-5-3--
E----------|--0-3-4----------------0-3-4-------------------------

Intro2:                                            
G------------------------------------------------------------------------------        
D------------------------------------------------------------------------------ 
A--0-3-5/7-6-5-5-3-5-3--0-3-5/7-6-5-5-3-5-3--0-3-5/7-6-5-5-3-5-3--0-3-5/7-6-5-- 
E------------------------------------------------------------------------------

Verse: x2
G---------------------    -----------------------------------
D---------------------    -----------------------------------
A--0-3---3-5-5-3-5-3--x3  -------------------/7-7-7-7-7-7-7--
E------0--------------    -3-3-3-3-3-3-3-3-0-----------------

Pre-chorus:
G----------------------------------------------------------------------- 
D-----------------------------------------------------------------------      
A--0-3-5/7-6-5-5-3-5-3--0-3-5/7-6-5-5-3-5-3--------0-3-5/7-6-5-5-3-5-3--       
E--------------------------------------------0-3-4----------------------    
  
 ------------------------------------
 ------------------------------------
 --------------------/7-7-7-7-7-7-7--
 --3-3-3-3-3-3-3-3-0-----------------

Chorus:
G--------------------------     --------------------------------
D--------------------------     --------------------------------
A--0-0-0/5-5-5-5/10-10-10--x3   --10----10----------------------
E--------------------------     -----10----10--3-3-3-3-3-4-4-5--  

(Intro2) 

(Verse)

(Pre-chorus)
 
(Chorus)

Interlude:
G----------|----------------------   --------------------------------
D----------|----------------------   --------------------------------
A--guitar--|--------0-0-3-0-0--5--   --------0-0-3-0-0--3-5-5-3-5-3--x8
E----------|--0-3-4---------------   --0-3-4-------------------------

(Pre-chorus)

Chorus:
G--------------------------     ------------------------------------------------------
D--------------------------     ------------------------------------------------------
A--0-0-0/5-5-5-5/10-10-10--x3   --10----10----------------10----10--------------------
E--------------------------     -----10----10--3-3-3-3-3-----10----10--3-3-3-3-3-4-5--


_______________________________________________________
Contribuição: Emerson Malucelli Iurk(emeriurk@hotmail.com)

Comentários 0

Composição: Dexter Holland / J. Bouchikhi / RedOne / Ron Welty / Sergio Natureza
Esse não é o compositor? Avise-nos.
publicidade
fechar