Descanso

Oficina G3

 Oficina G3
Tom: G
		
Afinação: DADGAD

Intro:

D|--------------------------|
A|--5---5---5----5----5---5-|
D|----0---0----0----0---0---|17x
G|--------------------------|
A|--------------------------|
D|--------------------------|



D|------------------------------------|
A|--5-----------5----5---5---5---5----|
D|-----------4-----0---0---0---0------|
G|---------0--------------------------|
A|------0-----------------------------|
D|------------------------------------|



D|--------------------------|
A|--5---5---5----5----5---5-|
D|----0---0----0----0---0---|
G|--------------------------|
A|--------------------------|
D|--------------------------|



D|------------------------------------|
A|--5-----------5----5---5---5---5----|
D|-----------4-----0---0---0---0------|
G|---------0--------------------------|
A|------0-----------------------------|
D|------------------------------------|



D|-----------------------|
A|--5---5---5---5--------|
D|----0-------0----------|  4x
G|--------7---------7----|
A|-----------------------|
D|-----------------------|



D|-----------------------|
A|--7---7---7---7--------|
D|----x-------x----------|  2x
G|--------7--------------|
A|-----------------------|
D|-----------------0-----|



D|-----------------------|
A|--2---2---2---2--------|
D|----0-------0----------|  2x
G|--------4--------------|
A|-----------------------|
D|-----------------0-----|


[Dedilhado]

D                     G
Estou quase a desfalecer
D                            G
Dores vem, me fazem enfraquecer
Em                         Bm
Mas posso Te encontrar em meu espírito


D                   Am
Estar imerso em Tua paz
D                     Am
Continuo assim a caminhar


[Dedilhado]

D                         G
Falhas que revelam o que sou
D                         G
Apenas mais um mero pecador
Em                         Bm
Mas posso Te encontrar em meu espírito

D                     Am
Estar imerso em Teu amor
D                   Am
Continuo assim a lutar

refrão

 G                D
Posso descansar em Ti
      Bm      A      G      Em
Você me ensinou meu Mestre
G                         D
Que se o fardo estiver pesado
           Bm   A      G
Posso colocar sobre Ti
    Em     D
E leve estarei (Volta segunda estrofe: D - Am 2x)


[Dedilhado]

D                       G
Abro mão de tudo o que sou
D                        G
Só assim Tu poderás crescer

Em
Grato sou ó Pai
     Bm
Por poder compreender
    D                        Am
Que não dependo das minhas mãos
     D                       Am
Mas estou seguro em Tua redenção

G                  D
Posso descansar em Ti
     Bm      A      G      Em
Você me ensinou meu Mestre
G                         D
Que se o fardo estiver pesado
           Bm   A      G
Posso colocar sobre Ti
    Em     D
E leve estarei

(Solo)

Bm                 A
E mesmo que o futuro seja
    Em
Incerto ao meu entender
Bm                A
O que mais eu posso querer?
F                  G
Se Tu és meu guia, não há o que temer

G                  D
Posso descansar em Ti
     Bm      A      G      Em
Você me ensinou meu Mestre
G                         D
Que se o fardo estiver pesado
           Bm   A      Bm   G
Posso colocar sobre Ti
     Bm   A      G
Colocar sobre ti
               Em G Em G
E leve estarei

( D  Am )
Texto Colunas
Alterar tom ½ tom ½ tom
afinação acordes na letra esconder tabs mais »
55.387 exibições

Comentários 21

  • Anderson Anderson: Postado em 22/05/2014 20:08

    nessa musica oi cifra club vacilou!! mas consigo tocar... :(

  • Thalles Thalles: Postado em 12/05/2014 20:12

    com a afinação dadgad o desenho das notas são diferentes, as notas que estão ai são para tocar com afinação padrão

  • wezinho_flp wezinho_flp: Postado em 06/03/2014 21:40

    Da pra por uma inversão de A/C# depois do D e antes do Bm no refrão... Encaixa...

  • victor.martins.180410 victor.martins.180410: Postado em 26/01/2014 16:39

    tipo a afinação e a certa mais esses não são os acordes pois os acordes são power chords :/

  • Júlia Júlia: Postado em 18/01/2014 11:40

    Consegui tocar...mt boa a música ! Parabéns !!!

  • Safiire Safiire: Postado em 28/12/2013 13:37

    vídeo aula , please

  • vitinhobelford vitinhobelford: Postado em 05/12/2013 16:52

    olha na boa isso ta certo???
    porque eu toco de outro jeito muito diferente

    • João Pedro João Pedro: Postado em 10/12/2013 17:45

      Comentário removido

    • João Pedro João Pedro: Postado em 10/12/2013 17:47

      Toca na afinação padrão !

  • Paulo Paulo: Postado em 09/11/2013 00:32

    O tom é D e não G! aff

Exibindo 10 de 21 comentários Mostrar mais ver todos »
Composição: Jackeline Dantas/Mauro Henrique
Esse não é o compositor? Avise-nos.
Contribuição: arkan_zerne Correções: Júlia , #Adson e mais 12 »
  1. Domingo de Manhã - Marcos e Belutti Manteve-se 101.185 exibições
  2. Logo Eu - Jorge e Mateus Manteve-se 47.672 exibições
  3. Não Vai Voltar - Onze:20 Manteve-se 40.815 exibições
  4. Maus Bocados - Cristiano Araújo Manteve-se 39.771 exibições
  5. Pra Você - Onze:20 Manteve-se 39.760 exibições
  6. Recaídas - Henrique e Juliano Manteve-se 38.818 exibições
  7. É Preciso Saber Viver - Titãs Manteve-se 34.345 exibições
  8. Aonde Quer Que Eu Vá - Os Paralamas do Sucesso Manteve-se 33.730 exibições
  9. Só Os Loucos Sabem - Charlie Brown Jr. Manteve-se 32.572 exibições
  10. Pais e Filhos - Legião Urbana Manteve-se 30.673 exibições
  1. Jorge e Mateus- Manteve-se 288.852 exibições
  2. Legião Urbana- Manteve-se 218.605 exibições
  3. Charlie Brown Jr.- Manteve-se 154.736 exibições
  4. Fernandinho- Manteve-se 125.080 exibições
  5. Marcos e Belutti- Manteve-se 124.867 exibições
  6. Henrique e Juliano- Manteve-se 118.090 exibições
  7. Bruno e Marrone- Manteve-se 108.966 exibições
  8. Onze:20- Manteve-se 104.107 exibições
  9. Luan Santana- Manteve-se 94.621 exibições
  10. Thalles Roberto- Manteve-se 93.884 exibições
Exibir acordes »

Cifras e tabs

Fórum Cifra Club

Aprenda

Cifra Club News

Mais Serviços Cifra Club ID

Studio Sol

©1996 - 2014 Cifra Club · o primeiro, maior e mais acessado do Brasil · 336 mil músicas · 6.2 milhões pessoas cadastradas

publicidade
fechar