Oficina G3

Perfeito Amor

297.383 exibições
Tom: F

 Intro 2x:             G  Bb  C
E|------------------------|------------------------|
B|------------------------|------------------------|
G|-5/7--5h7p5p4-5-4-2-0---|------------------------|
D|------------------------|------------------------|
A|------------------------|------------------------|
E|------------------------|------------------------|

           H                  H.A.......

E|------------------------|------------------------|
B|------------------------|------------------------|
G|-0-2-3------------------|-3/7-----9-5-4----------|
D|------------------------|------------------------|
A|------------------------|------------------------|
E|------------------------|------------------------|

                                    H

E|------------------------|----10------------------|
B|------------------------|------------------------|
G|-4-2/3--2/3/2--0-2-0----|------------------------|
D|---------------------3-0|--3-------0-2-3---------|
A|------------------------|------------------------|
E|------------------------|------------------------|


E|------------------------|---------------3--------|
B|------------------------|---------------3--------|
G|------------------------|---------------0--------|
D|-2-0---0/2/0---0--------|-(0)--2-3-2-0--0--------|
A|-----0-------3----------|---------------x--------|
E|------------------------|---------------3--------|


G                     Bb9   F
 Se todos vivessem o amo...o...or
G      Bb9      F
 Como Deus o criou
G                          Bb9    F
 O amor que não guarda ranco.....or
G       D9/B     Bb9     F
 Tudo espera e suporta a dor

E|------------------------|------------------------|
B|------------------------|------------------------|
G|--0-2-0-3-2-2/3-0-2-0---|------------------------|
D|------------2/3-0-2-0---|------------------------|
A|------------------------|------------------------|
E|------------------------|------------------------|


(Intro - Repete 1ª parte)

Bb          F/A  Gm7
 Se não houver amor
      F/A           Bb9
 Não vale apena viver
         F/A     Gm7
 O verdadeiro amor
                        Eb    D
 Só vive quem anda com Deeeeeus

Refrão:
F    Bb     Dm       C                 F
 O Amor de Deus pra sempre eu quero viver
     Bb     Dm    C                Bb9
 Perfeito amor, eterna essência de Deus

Refrão: F  Bb  Dm  C
Solo:
                  H

E|------------------------|------------------------|
B|----------5-8-5-6-5-----|------------------------|
G|--3-5-3-----------------|-7-5----5-4-------------|
D|------------------------|-----7------------------|
A|------------------------|------------------------|
E|------------------------|------------------------|

                    H

E|------------------------|------------------------|
B|------2-3-5---5-6-5-----|-----5------------------|
G|-3-5--------------------|--7-----7--5---5/7------|
D|------------------------|--------------------5/7-|
A|------------------------|------------------------|
E|------------------------|------------------------|

        P                      H

E|------------------------|------------------------|
B|-----6-5-----5-6-8------|--5-6-5-----------------|
G|-5--------7-------------|----------7--5/2--------|
D|------------------------|------------------------|
A|------------------------|------------------------|
E|------------------------|------------------------|

       P         H

E|------------------------|------------------|
B|------------------------|------------------|
G|------------------------|------------------|
D|--5-3-2-----2-3-5-------|-2/3/2------------|
A|---------5--------------|--------5-3/1-----|
E|------------------------|------------------|


E|-------------|------------|---------------|----8/10---|
B|-----6-------|-8-----6----|-8------10-8---|-----------|
G|--3----5-3---|----7----7--|----10---------|-----------|
D|-------------|------------|---------------|-----------|
A|-------------|------------|---------------|-----------|
E|-------------|------------|---------------|-----------|


            H           P       P        H            Bb
E|-8-10-8--7-|--6-5--------------------------------1--|
B|-----------|---------8--6-5-----5-6-5------------3--|
G|-----------|------------------7---------7-5\2/3--3--|
D|-----------|-------------------------------------3--|
A|-----------|-------------------------------------1--|
E|-----------|----------------------------------------|
    Composição: Juninho Afram, Duca Tambasco e PGColaboração e revisão:
    • insomaniac
    • Andriel
    • tchutchuk0
    • isacc
    • +6

    Comentários 13

    140 .
    • pequenomaromba pequenomaromba: Em 14/11/2012 13:58

      Vídeo aula pelo amor de Deus!!!!

    • semdedo semdedo: Em 08/11/2012 17:07

      Precisa colocar mais videos do Oficina G3

    • neguemo neguemo: Em 30/10/2012 11:45

      video aula qual é cifra club

    • gabrielxdzs gabrielxdzs: Em 12/10/2012 18:51

      esse solo tem umas partes erradas ta fora da harmonia da música mas eu vou conseguir pegar se eu pegar corrijo

    • bateristamaster bateristamaster: Em 27/07/2012 21:16

      video aula ?? .-.

    • 0lucashenrique 0lucashenrique: Em 02/07/2012 21:29

      Video seria bom

    • salo2 salo2: Em 29/05/2012 18:30

      video aula por favor!!!!!!

    • isabelaimw isabelaimw: Em 27/05/2012 00:12

      Video Aulaa' Pleasee' :)

    • Guilherme Guilherme: Em 22/01/2012 15:43

      Video aula por favor!!! nao consigo pegar esse solo..

    • lkmaulaz lkmaulaz: Em 09/12/2011 21:44

      Essa música é melhor do q a versão antiga, tem solo de volão e é tranquila de ouvir e tocar! show!

    Exibindo 10 de 13 comentários Mostrar mais ver todos »
    140 cancelar

    conseguiu tocar?

    • Tiago
    • Paulo Guimarães
    • Aline souza krygsman
    • Pamela Danielly
    • vitinhadoce
    • woit
    • Matheus Atallah
    • •••
    Jeremias Marinho10.989 visualizações
      ver covers de outras músicas »
      0:00 / 0:00

      Capítulos

        1 versão de Guitar Proformatodownloadscontribuição
        1 versão de partiturasformatodownloadscontribuição
        play/pausefechar subir/descer velocidade
        6ª corda E5ª corda A4ª corda D3ª corda G2ª corda B1ª corda E
          acordes
          publicidad
          fechar
          ok