Quebrantado

Oficina G3

 Oficina G3 Compositor: Vineyard
Tom: C
		
Intro: C  G  Am  F

               C
Eu olho para cruz
                  G
E para a cruz eu vou
                      Am
Do Seu sofrer participar
                   F
Da Sua obra vou cantar

           C
Meu Salvador
              G
Na cruz mostrou
           Am
O amor do Pai
         F
O justo Deus

C
Pela cruz  me chamou
G                        Am
Gentilmente me atraiu e eu

Sem palavras me aproximo
F                       C
Quebrantado por Seu amor

Interlúdio: C  G  Am  F

           C
Imerecida vida
             G
De graça recebi
          Am
Por Sua cruz
               F
Da morte me livrou

               C
Trouxe-me a vida
                G
Eu estava condenado
                Am
Mas agora pela cruz
                F
Eu fui reconciliado

Dm                     C-F
Impressionante é o Seu amor
Dm               C-F
Me redimiu e me mostrou
             G
O quanto é fiel.


E|-------------------------------------------------------------------------|
B|-------------------------------------------------------------------------|
G|-------------------------------------------------------------------------|
D|-9-9-9--6h8/9/11/8-8h9-9-6h8/9/8/6---------------------------------------|
A|-------------------------------------------------------------------------|
E|-------------------------------------------------------------------------|



E|-------------------------------------------------------------------------|
B|-------------------------------------------------------------------------|
G|-------4-6-4-6/8-8-8^---6b8r6-4---4h6------------------------------------|
D|-6-4-6-----------------------6-------------------------------------------|
A|-------------------------------------------------------------------------|
E|-------------------------------------------------------------------------|



E|-------------------------------------------------------------------------|
B|-------------------------------------------------------------------------|
G|-------9/11-11-11^-11b13r11----------------------------------------------|
D|-11-9--------------------------------------------------------------------|
A|-------------------------------------------------------------------------|
E|-------------------------------------------------------------------------|



E|-------------------------------------------------------------------------|
B|-------12----12~-12-12-12-12-12-12-11-11-12--14b16r14-12-14--------------|
G|-11-13----13-----11-11-11-11-11-11-11-11-11------------------------------|
D|-------------------------------------------------------------------------|
A|-------------------------------------------------------------------------|
E|-------------------------------------------------------------------------|



E|-------------------------------------------------------------------------|
B|-12p11p9--9------------------------------------------9-9-11-11-12-12-----|
G|--------11---11h13p11------------------8-8-9-9-11-11---------------------|
D|----------------------11-11--11-9-11-11----------------------------------|
A|-------------------------------------------------------------------------|
E|-------------------------------------------------------------------------|



E|-------------------------------------------------------------------------|
B|----14b16r14--16b17r16--14/12--14/16b17r16/14/12-------------------------|
G|-11----------------------------------------------------------------------|
D|-------------------------------------------------------------------------|
A|-------------------------------------------------------------------------|
E|-------------------------------------------------------------------------|
16.839 exibições

Comentários 2

  • hannah_g3 hannah_g3: Postado em 02/02/2014 23:00

    Na verdade nessa música quem está cantando é o Vineyard, o Juninho está participando mas não é o Oficina cantando :S

  • pr.joelterra pr.joelterra: Postado em 02/12/2013 10:37

    alguns acordes estão invertidos e onde está colocado o acorde de Am na verdade deve-se tocar Dm!

Composição: Sabe quem é o compositor? Envie pra gente. Contribuição: eliasalants Correções: ninowillneto e mais 2 »
Exibir acordes »
publicidade
fechar