Rei de Salem

Oficina G3

 Oficina G3
Tom: F
		

Intro: C  Am7  Bb9  C  C/E  Bb9
E|------------------------------------------------------------------|
B|------------------------------------------------------------------|
G|-----5~-------------------------5-7--5------5~--7/9-7\5---3p2-----|
D|-5/7-----7-5----------------5-7--------7-5~-------------------3---|
A|-------------7-5-3~-----3-5-------------------------------------3-|
E|--------------------6~--------------------------------------------|



E|------------------|
B|------------------|
G|------------------|
D|------------------|
A|-----3---3~-----3-|
E|-3h5---5----5-3---|


C                  D                    F
Toda glória, honra e poder ao Rei de Salém
                  G
Toda esplenda majestade
G#°	    Am7        Am/G       F
Ao Senhor o alto trono, todo firmamento
 C         Bb  F     G
Toda adoração  e o louvor

C              D/E                F
Pois seu reino é reino eterno
	         G      G#°         Am7
Criador de toda a vida, fonte de justiça
G          F	C   Bb/D       F   G
E misericórdia, toda redenção, e o poder

F         G        Am
Ao Senhor Jesus adoração
F         G           C
E o levantar de minhas mãos
F        G          G#   A#    C
E o dobrar dos meus joe  eee    lhos
27.531 exibições

Comentários 1

  • jonathanm jonathanm: Postado em 21/02/2013 18:51

    Top! Em minha opinião, esses foram os melhores anos do Oficina G3!

Composição: Túlio Régis
Esse não é o compositor? Avise-nos.
Contribuição: N4 Correções: rosanana , personpaiva e mais 4 »
Exibir acordes »
publicidade
fechar