Te Escolhi

Oficina G3

 Oficina G3
Tom: C#
		
Bbm          G#
Você ja me procurou
            F#
Por muitas vezes tentou
      G#      F#   Bbm
Como cego na multidão
              G#
Que procura o seu caminho
       F#                 D#m C# Bbm
Mas sozinho nada encontra


E|-------------------------------|
B|-------------------------------|
G|-------------------------------|
D|---4-3-------------------------|
A|-------4-----------------------|
E|---------6---------------------|


Bbm              G#
Quantas vezes eu te chamei
    F#              D#m C# Bbm
E você não entendeu


E|-------------------------------|
B|-------------------------------|
G|-------------------------------|
D|---4-3-------------------------|
A|-------4-----------------------|
E|---------6---------------------|


Bbm                G#                         C#
Se você parasse um pouco e ouvisse a minha voz

C#      G#          Bbm
Te escolhi, te busquei
               F#             C#
Sempre ao seu lado eu caminhei
C#    G#       Bbm F# Bbm
Eu sofri por você

Bbm       G#
Eu te procuro
                   F#
E você por tantos lugares buscou


E|-------------------------------|
B|--------6b/---9/\----11--------|
G|-------------------------------|
D|-------------------------------|
A|-------------------------------|
E|-------------------------------|


Bbm             G#                    F#           D#m C# Bbm


E|-------------------------------|
B|-------------------------------|
G|-------------------------------|
D|---4-3-------------------------|
A|-------4-----------------------|
E|---------6---------------------|


Mas nunca entendeu que sempre estive perto de você
Bbm        G#                   F#
Eu te escolhi, quero te conquistar
F#
Te mostrar o verdadeiro amigo


E|-------------------------------|
B|-------------------------------|
G|-------------------------------|
D|---4-3-------------------------|
A|-------6-----------------------|
E|---------6---------------------|


Bbm               G#             C#
Se você parar e ouvir a minha voz.


E|--------------------------------|
B|--9--6----6-/-4-----------------|
G|--------6--------6---------6----|
D|--------------------4-3-4-------|
A|--------------------------------|
E|--------------------------------|


C#      G#          Bbm
Te escolhi, te busquei
               F#             C#
Sempre ao seu lado eu caminhei
C#    G#       Bbm F#                       C#
Eu sofri por você, na Cruz provei o meu amor

C#      G#          Bbm
Te escolhi, te busquei
               F#             C#
Sempre ao seu lado eu caminhei
C#    G#       Bbm F#
Eu sofri por você

Solo: F#  C# G# Bbm F# C# G# Bbm F# C# G# Bbm F# Bbm

C#      G#          Bbm
Te escolhi, te busquei
               F#             C#
Sempre ao seu lado eu caminhei
C#    G#       Bbm F#                       C#
Eu sofri por você, na Cruz provei o meu amor

C#      G#          Bbm
Te escolhi, te busquei
               F#             C#
Sempre ao seu lado eu caminhei
C#    G#       Bbm F# C# G# Bbm F# C# G# Bbm F#    Bbm  G#  D#m C#
Eu sofri por você

Comentários 0

Composição: Sabe quem é o compositor? Envie pra gente. Contribuição: natangtt Correções: Karleandro e mais 2 »
Exibir acordes »
publicidade
fechar