Kaufrausch Intro

Ohrbooten

Sem foto do Ohrbooten
Tom: C
		

e------------------------------------------------------------------------------|
B------------------------------------------------------------------------------|
G----------------------------------------2-2-1---------------------------------|
D-------0-1-2---3-2-0--------------0-1-2---------------------------------------|
A-0-2-3--------------3-2-2---0-2-3---------------------------------------------|
E------------------------------------------------------------------------------|




e------------------------------------------------------------------------------|
B------------------------------------------------------------------------------|
G------------------------------------------------------------------------------|
D-------0-1-2---3-2-0--------------0-1-2---3-3----------2----------------------|
A-0-2-3--------------3-2-2---0-2-3-------------1------0-0----------------------|
E------------------------------------------------------------------------------|
185 exibições

Comentários 0

Exibir acordes »
publicidade
fechar