One Direction

Little Things

403.763 exibições
Tom: D
Intro (dedilhado da música toda) Obs: o "G" deve ser adaptado
             D                                              G
E|-------2--------0-------------2-------0------|-------------2--------0-----------2--------0-----|
B|-------3-----3-------3--------3-----3------3-|-------------3-----3--------------3-----3------3-|
G|---2------2-------2-------2------2-------2---|----------0-----0--------0------O----0-------0---|
D|---------------------------------------------|-------------------------------------------------|
A|---------------------------------------------|-------------------------------------------------|
E|-0----------------------0--------------------|-0--2--3----------------------3------------------|

            Bm                        A                         G
E|-------0-------0---------|------0------0----------|-------2-----|-------0---------|
B|-------2-----2------2----|------2----2------0-----|-------3-----|-------2---------|
G|---0-------0------0------|----2----2------2-------|----0-----0--|----2-----2------|
D|-------------------------|------------------------|-------------|-----------------|
A|-0-----------------------|-0----------------------|-------------|-0---------------|
E|-------------------------|------------------------|-3-----------|-----------------|

Riff:
E|-----------|
B|-----------|
G|-----------|
D|-----------|
A|--0--2--3--|
E|-----------|

Variação de "D":
E|---------3p2--|
B|------3-------|
G|----2---------|
D|-0------------|
A|--------------|
E|--------------|

     D
Your hand fits in mine

Like it made just for me
(Riff) G
But bear this in mind

It was meant to be
         Bm
And I'm joining up the dots
            A
With the freckles on your cheeks
       G         A          D
And it all makes sense to me

   D
I know you've never loved

The crinkles by your eyes
   (Riff) G
When you smile,

You've never loved

Your stomach or your thighs
     Bm
The dimples in your back
         A
At the bottom of your spine
          G       A         D
But I'll love them endlessly

Em7                        G
I won't let these little things
     Bm            A
Slip out of my mouth
         Em7
But if I do
       G
It's you
         Bm
Oh it's you
             A
They add up to
        G
I'm in love with you
                       D
And all these little things

E|--------|--------|
B|------3-|-----3--|
G|--------|---0----|  2x
D|----0---|-0------|
A|--------|--------|
E|--3-----|--------|

  D
You can't go to bed

Without a cup of tea
(Riff) G
And maybe that's the reason

That you talk in your sleep
         Bm
And all those conversations
         A
Are the secrets that I keep
          G        A          D
Though it makes no sense to me

    D
I know you've never loved
                   (Riff) G
The sound of your voice on tape

You never want to know how much you weigh
Bm                          A
You still have to squeeze into your jeans
     G         A
But you're perfect to me

Em7                        G
I won't let these little things
     Bm           A
Slip out of my mouth
         Em7
But if it's true
       G
It's you
      Bm
it's you
             A
They add up to
        G
I'm in love with you
And all these little things
  
Em7            G
You'll never love yourself
     Bm                A
Half as much as I love you

Em7           G                  Bm
You'll never treat yourself right darlin'
                A
But I want you to

Em7             G
If I let you know
       Bm        A
I'm here for you

Em7            G                  Bm        A
Maybe you'll love yourself like I love you

Oh...

Em7                  G
I've just let these little things
      Bm           A
Slip out of my mouth
             Em7
'Cause it's you
         G
Oh it's you
       Bm
It's you
            A
They add up to
            G
And I'm in love with you
                      Em7
And all these little things

Em7                        G
I won't let these little things
     Bm
Slip out of my mouth
         A
But if it's true
       Em7
It's you
      G
it's you
             A
They add up to
        G
I'm in love with you
                      D
And all your little things.
    Composição: Ed Sheeran / Fiona BevanColaboração e revisão:
    • Victor
    • Adonay Kevyn
    • Bárbara
    • Rafael Fernando
    • +12

    Comentários 110

    140 .
    • Livia Livia: Em 17/08/2015 19:14

      cade a video aula simplificada

    • Livia Livia: Em 17/08/2015 19:13

      cade a video aula gente

    • Mylena Mylena: Em 13/07/2015 13:43

      Video aulaaaaaaaaaaaaaaa

    • Sarah Sarah: Em 08/07/2015 15:34

      Cabe BBCCBB a música inteira em uma versão mais parecida com a do Ed Sheeran, mudando de acorde no meio as vezes.

    • juhmariz juhmariz: Em 05/05/2015 19:09

      queria muito uma video aula, mas acho que não vão fazer por ser one direction, e essa musica n tem capotraste

    • thiago.martinez.359 thiago.martinez.359: Em 07/02/2015 11:55

      video aulaa pff

    • Maysa Maysa: Em 26/12/2014 01:48

      Cifra club video aula por favooor ! Tá todo mundo louco pedindo !

    • diiogoo.saantus diiogoo.saantus: Em 17/07/2014 16:38

      ta pronta e so pegar passo a passo do que eu mostrei la de baixo ate aqui e treinar ficou bem parecida

      • Vitoria Vitoria: Em 11/08/2014 17:30

        faz um video aula pq ne shudfoiusdnhfçoasndçasdfv

      • didigoooooo didigoooooo: Em 09/11/2014 00:05

        cara, coloca capo na 5 casa, nn? com o capo ficou melhor

    Exibindo 10 de 110 comentários Mostrar mais ver todos »
    140 cancelar
    0:00 / 0:00

    Capítulos

      1 versão de Guitar Proformatodownloadscontribuição
      1 versão de partiturasformatodownloadscontribuição
      play/pausefechar subir/descer velocidade
      6ª corda E5ª corda A4ª corda D3ª corda G2ª corda B1ª corda E
        acordes
        publicidad
        fechar
        ok