Tom: D
		

E|---------------------------------------------------------------------
B|-----------5----5----------------------------------------------------
G|-----2---------------7-----5-----7-------2---------------------------
D|---------------------------------------------------------------------
A|---------------------------------------------------------------------
E|---------------------------------------------------------------------




E|---------------------------------------------------------------------
B|---------------------------------------------------------------------
G|------2----7----5----2----7----4---0---2----------2---2----0---------
D|---------------------------------------------------------------------
A|---------------------------------------------------------------------
E|---------------------------------------------------------------------



E|---------------------------------------------------------------------
B|--------5----------5-------------------------------------------------
G|----2----------------------7-----5---7------2------------------------
D|---------------------------------------------------------------------
A|---------------------------------------------------------------------
E|---------------------------------------------------------------------



E|---------------------------------------------------------------------
B|---------------------------------------------------------------------
G|------------------2----4---5----7-----4---------------2--------------
D|-----3-----5-----------------------------------5---------------------
A|---------------------------------------------------------------------
E|---------------------------------------------------------------------



E|---------------------------------------------------------------------
B|---------------------------------------------------------------------
G|----2---2---5---7---4------------------------------------------------
D|-----------------------5--3--2------2-----3--2-----------------------
A|---------------------------------5---------------5---3---5----2------
E|---------------------------------------------------------------------



E|--------------------------------------------5---3------------5---3---
B|-------------------------------5----5---6----------6-----------------
G|------------------2---2---7----------------------------7--7----------
D|---------------------------------------------------------------------
A|---2--2-----0--------------------------------------------------------
E|---------------------------------------------------------------------



E|---------------------------------------------------------------------
B|----6---5------------------------------------------------------------
G|------------5---7-------7--7--7--7--7--0-----------------------------
D|---------------------------------------------------------------------
A|---------------------------------------------------------------------
E|---------------------------------------------------------------------



E|-------------------------5----3-------------5---3--------------------
B|-------------5---5----6-----------6------------------6---5-----------
G|---2--2--7---------------------------7---7-------------------5---7---
D|---------------------------------------------------------------------
A|---------------------------------------------------------------------
E|---------------------------------------------------------------------


Comentários 0

Composição: Masami Kurumada
Esse não é o compositor? Avise-nos.
Contribuição: acros black Correções: Ricardo »
Exibir acordes »
publicidade
fechar