Nada Mudou

Os Federais

 Os Federais
Tom: C
		
Intro: C  G

Solo Inicial:


E|12-8--12-8--12-8|
B|-------------------------|
G|-------------------------|
D|-------------------------|
A|-------------------------|
E|-------------------------|



E|13--12--10-----10-----10----14--13|
B|-----------------12-----12----12----------|
G|------------------------------------------------|
D|------------------------------------------------|
A|------------------------------------------------|
E|------------------------------------------------|




E|12-8--12-8--12-8|
B|-------------------------|
G|-------------------------|
D|-------------------------|
A|-------------------------|
E|-------------------------|



E|13--12--10----10----10----14-13|
B|----------------12----12----12---------|
G|---------------------------------------------|
D|---------------------------------------------|
A|---------------------------------------------|
E|---------------------------------------------|



C
Falo que passou, digo que acabou,
	     F	      G
mas dentro de mim nada mudou.
	                              C
Falo que esqueci, não é bem assim,
	  G	            C
tem muito de nós aqui dentro de mim.

C
Fala que passou, diz que acabou,
	   F                G
mas dentro de ti nada mudou.
	                                        C
Fala que esqueceu, que não quer me ver
	  G	       C       C7
tem muito de nós dentro de você.

  F	                                          G
Segue a vida com outro pensando em mim
  F	                                      G
Sigo com outra na vida pensando em ti
	  C                                 G	                      C
Saiba que te quero eu morro de saudade sem você aqui,
	     G                          C
eu morro de saudade sem você aqui.

(Final):
	         G                           C    { C G }
...eu morro de saudade... sem você aqui...
38.228 exibições

Comentários 0

Composição: Sabe quem é o compositor? Envie pra gente. Contribuição: Everton Correções: Matheus e mais 1 »
Exibir acordes »
publicidade
fechar