O Milionário

Os Incríveis

 Os Incríveis
Tom: G
		
Intro    : ( G,Am,D,G,D )
Base     : ( G,Am,D,G,D )
Variação : ( G,G#,A,G#,G ) 2X ( D )

************* BASE NORMAL *************
1º RIFF

e|------------------------------------------3----------3--------------| 
B|---------------------------3--3----5--5-------5--5------5--4--5~~~~-| 
G|---0--0----2--2----4--4---------------------------------------------| 
D|--------------------------------------------------------------------| 
A|--------------------------------------------------------------------| 
E|--------------------------------------------------------------------|



e|---5-5---7---5-5----7----5-5----7-5-7-5---3---0---------------------| 
B|--------------------------------------------------3^----------------| 
G|--------------------------------------------------------------------| 
D|--------------------------------------------------------------------| 
A|--------------------------------------------------------------------| 
E|--------------------------------------------------------------------|



e|------------------------------------------3----------3--------------| 
B|---------------------------3--3----5--5-------5--5------5--4--5~~~~-| 
G|---0--0----2--2----4--4---------------------------------------------| 
D|--------------------------------------------------------------------| 
A|--------------------------------------------------------------------| 
E|--------------------------------------------------------------------|



e|---5-5---7---5-5----7----5-5----7-5-7-5---3---0---------------------| 
B|--------------------------------------------------3^----------------| 
G|--------------------------------------------------------------------| 
D|--------------------------------------------------------------------| 
A|--------------------------------------------------------------------| 
E|--------------------------------------------------------------------|


                             
  2º RIFF   Modificado até a parte que esta escrito variação                
                              /2x
  ####################################################################

e|-----7--08--10----|---08-10-08-10---7-5--|------17-----------------| 
B|----8--10--12-----|--10-12-10-12---8--5--|--5/17--19---------------| 
G|------------------|-----------------------|------------------------| 
D|------------------|-----------------------|------------------------| 
A|------------------|-----------------------|------------------------|
E|------------------|-----------------------|------------------------|

 
                              /2x   
  ###################################################################

e|--14--12--14--14--|--12--14--15--|--14--12---10--107---------------|
B|-15--13--15--15---|-13--15--15---|-15--13---12--128----------------|
G|------------------|--------------|---------------------------------|
D|------------------|--------------|---------------------------------|
A|------------------|--------------|---------------------------------|
E|------------------|--------------|---------------------------------| 



               ************ VARIAÇÃO *************

e|--------------------------------------------------------------------| 
B|-8h9-8h9-8h9-8h9-8h9-8h9-8h9-8h9-8h9-8h9-8h9-8h9-8h9-9-10-10-9-9-8~~| 
G|--------------------------------------------------------------------| 
D|--------------------------------------------------------------------| 
A|--------------------------------------------------------------------| 
E|--------------------------------------------------------------------|




e|------15---17---15-15--17---15~~~~----------------------------------| 
B|--------------------------------------------------------------------| 
G|--------------------------------------------------------------------| 
D|--------------------------------------------------------------------| 
A|--------------------------------------------------------------------| 
E|--------------------------------------------------------------------|

 

e|--------------------------------------------------------------------| 
B|-8h9-8h9-8h9-8h9-8h9-8h9-8h9-8h9-8h9-8h9-8h9-8h9-8h9-9-10-10-9-9-8~~| 
G|--------------------------------------------------------------------| 
D|--------------------------------------------------------------------| 
A|--------------------------------------------------------------------| 
E|--------------------------------------------------------------------|



e|------------------| 
B|----5----3~~~~~~--| 
G|------------------| 
D|------------------| 
A|------------------| 
E|------------------|

 
OBS:
( ************* REPITIR A MÚSICA INTEIRA SÓ QUE ABAFADA ATÉ O 1ºRIFF DEPOIS É 
SÓ TOCA-LA NORMALMENTE. MO FINAL DA MÚSICA TEM UMA VARIAÇÃO ************* ).

base: (G,Am,D,G#,G) (G#,A)


e|------------------------------------------3----------3-------------| 
B|---------------------------3--3----5--5-------5--5------5--4--5~~~~| 
G|---0--0----2--2----4--4--------------------------------------------| 
D|-------------------------------------------------------------------| 
A|-------------------------------------------------------------------| 
E|-------------------------------------------------------------------|


                                                 G#             A
e|---5-5---7---5-5----7----5-5----7-5-7-5---3---8-8-8-8--7-7---5~~~~-| 
B|--------------------------------------------------3^---------------| 
G|-------------------------------------------------------------------| 
D|-------------------------------------------------------------------|
A|-------------------------------------------------------------------| 
E|-------------------------------------------------------------------|
              2X


e|----8--7-7-7--5--7--5--7----|----8-8-7-7-7-6-6-5----| 
B|----------------------------|-----------------------| 
G|----------------------------|-----------------------| 
D|----------------------------|-----------------------| 
A|----------------------------|-----------------------| 
E|----------------------------------------------------|



              2X                    G#  G  F#  F
e|----8--7-7-7--5--7--5--7----|----4---3--2---1-------0----| 
B|----------------------------|-----------------------0----| 
G|----------------------------|-----------------------0----| 
D|----------------------------|-----------------------0----| 
A|----------------------------|-----------------------0----| 
E|----------------------------------------------------0----|  


VIOLÃO DA BASE FAZ UM HARMÔNICO NO FINAL


e|---12---| 
B|---12---|
G|---12---|
D|---12---|
A|---12---|
E|---12---|
Texto Colunas
Alterar tom ½ tom ½ tom
afinação acordes na letra esconder tabs mais »

Comentários 7

  • thehardcte thehardcte: Postado em 07/07/2013 20:48

    mto legal realmente tem erros mas consegui corrigir ouvindo com atenção.

  • Jeferson Jeferson: Postado em 08/04/2013 14:14

    boa musica

  • luckaspark luckaspark: Postado em 02/01/2013 13:47

    Tem coisa errada aí!

  • thehardcte thehardcte: Postado em 12/09/2012 12:01

    blz vo tentar corrigir...

  • johnnyguitarra johnnyguitarra: Postado em 04/08/2011 16:49

    Olá pessoal tudo bem.....esta tablatura está incorreta alguem poderia corrigi-la obrigado...

    • lcsiqueira lcsiqueira: Postado em 11/01/2013 13:41

      Dei uma olhada rapidinho e vi que tem erros. Vou corrigir, deixa eu ter um tempinho aqui

Composição: Sabe quem é o compositor? Envie pra gente. Contribuição: slash
  1. Domingo de Manhã - Marcos e Belutti Manteve-se 98.258 exibições
  2. Até Você Voltar - Henrique e Juliano Manteve-se 53.974 exibições
  3. Pra Você - Onze:20 Manteve-se 50.133 exibições
  4. Recaídas - Henrique e Juliano Manteve-se 41.598 exibições
  5. Logo Eu - Jorge e Mateus Manteve-se 40.596 exibições
  6. Evidências - Chitãozinho & Xororó Manteve-se 37.100 exibições
  7. Só Os Loucos Sabem - Charlie Brown Jr. Manteve-se 31.698 exibições
  8. Give Me Love - Ed Sheeran Manteve-se 30.072 exibições
  9. Cuida Bem Dela - Henrique e Juliano Manteve-se 29.719 exibições
  10. Pais e Filhos - Legião Urbana Manteve-se 29.263 exibições
  1. Jorge e Mateus- Manteve-se 252.870 exibições
  2. Legião Urbana- Manteve-se 210.599 exibições
  3. Henrique e Juliano- Manteve-se 188.337 exibições
  4. Charlie Brown Jr.- Manteve-se 151.539 exibições
  5. Bruno e Marrone- Manteve-se 138.471 exibições
  6. Marcos e Belutti- Manteve-se 120.396 exibições
  7. Fernandinho- Manteve-se 119.285 exibições
  8. Luan Santana- Manteve-se 108.496 exibições
  9. Thalles Roberto- Manteve-se 94.265 exibições
  10. Victor e Leo- Manteve-se 92.036 exibições
Exibir acordes »

Cifras e tabs

Fórum Cifra Club

Aprenda

Cifra Club News

Mais Serviços Cifra Club ID

Studio Sol

©1996 - 2014 Cifra Club · o primeiro, maior e mais acessado do Brasil · 337 mil músicas · 6.2 milhões pessoas cadastradas

publicidade
fechar