Os Incríveis

O Milionário

181.377 exibições
Tom: G
Intro    : ( G,Am,D,G,D )
Base     : ( G,Am,D,G,D )

1º RIFF

E|------------------------------------------3----------3------------| 
B|---------------------------3--3----5---------5--------5--4--5~~~~-| 
G|---0------2--2----4-----------------------------------------------| 
D|------------------------------------------------------------------| 
A|------------------------------------------------------------------| 
E|------------------------------------------------------------------|


E|---5-5---7---5-----7----5-----7-5-7-5---3------------------------| 
B|--------------------------------------------5----3~~~------------| 
G|-----------------------------------------------------------------| 
D|-----------------------------------------------------------------| 
A|-----------------------------------------------------------------| 
E|-----------------------------------------------------------------|


E|------------------------------------------3--------3--------------| 
B|---------------------------3--3------5-------5--------5--4--5~~~~-| 
G|---0------2--2----4-----------------------------------------------| 
D|------------------------------------------------------------------| 
A|------------------------------------------------------------------| 
E|------------------------------------------------------------------|


E|---5-5---7---5-----7----5-----7-5-7-5---3---------------------------| 
B|----------------------------------------------5----3~~~~------------| 
G|--------------------------------------------------------------------| 
D|--------------------------------------------------------------------| 
A|--------------------------------------------------------------------| 
E|--------------------------------------------------------------------|


                             
  2º RIFF           * 2 VEZES SEGUIDAS *   
                              

E|----3---5---7---|--08-10-08-10---7--5--|------17----------------| 
B|----3---5---8---|--10-12-10-12---8--5--|--5/17--19--------------| 
G|----4---5---7---|-------------------5--|------------------------| 
D|----------------|----------------------|------------------------| 
A|----------------|----------------------|------------------------|
E|----------------|----------------------|------------------------|

 
                             
  

E|--14--12--14--14--|--12--14--16--|--14--10---10--7---------------|
B|--13--10--13--13--|--10--13--15--|--13--12---12--8---------------|
G|------------------|--------------|-------------------------------|
D|------------------|--------------|-------------------------------|
A|------------------|--------------|-------------------------------|
E|------------------|--------------|-------------------------------| 



               

E|-------------------------------------------------------15--17--15--12--11--10-| 
B|-7h9-7h9-7h9-7h9-7h9-7h9-7h9-7h9-7h9-7h9--11--9--10~~------------------------/ 
G|-----------------------------------------------------------------------------| 
D|-----------------------------------------------------------------------------| 
A|-----------------------------------------------------------------------------| 
E|-----------------------------------------------------------------------------|


                                                         OBS\: neste ultimo *10 arrastar
                                                          a nota até o final do braço

E|--------------------------------------------------------------------| 
B|--7h9-7h9-7h9-7h9-7h9-7h9-7h9-7h9-7h9-7h9--11--9--10~~--*10---------| 
G|--------------------------------------------------------------------| 
D|--------------------------------------------------------------------| 
A|--------------------------------------------------------------------| 
E|--------------------------------------------------------------------|

 

* FAZER ESTA PRÓXIMA PARTE ABAFANDO AS CORDAS *


E|-------------------------------------12-12----15-15-----12-12-----15-15----12-12-12-12-12-12-12-12-| 
B|-------------------12-12----15-15------------------------------------------------------------------| 
G|--12-12----14-14-----------------------------------------------------------------------------------| 
D|---------------------------------------------------------------------------------------------------| 
A|---------------------------------------------------------------------------------------------------| 
E|---------------------------------------------------------------------------------------------------|


E|--17-17-17--19--17-17-17--19---17-17-17---19-17-19-17-17---15-15-15---17-17---10-10-10-------------|
B|---------------------------------------------------------------------------------------------------| 
G|---------------------------------------------------------------------------------------------------|
D|---------------------------------------------------------------------------------------------------| 
A|---------------------------------------------------------------------------------------------------|
E|---------------------------------------------------------------------------------------------------| 


E|-------------------------------------12-12----15-15-----12-12-----15-15----12-12-12-12-12-12-12-12-| 
B|-------------------12-12----15-15------------------------------------------------------------------| 
G|--12-12----14-14-----------------------------------------------------------------------------------| 
D|---------------------------------------------------------------------------------------------------| 
A|---------------------------------------------------------------------------------------------------| 
E|---------------------------------------------------------------------------------------------------|


E|--17-17-17--19--17-17-17--19---17-17-17---19-17-19-17-17---15-15-15---17-17---10-10-10-------------|
B|---------------------------------------------------------------------------------------------------| 
G|---------------------------------------------------------------------------------------------------|
D|---------------------------------------------------------------------------------------------------| 
A|---------------------------------------------------------------------------------------------------|
E|---------------------------------------------------------------------------------------------------| 


                         2X REPETIR 


E|----3---5---7---|--08-10-08-10---7--5--|------17----------------| 
B|----3---5---8---|--10-12-10-12---8--5--|--5/17--19--------------| 
G|----4---5---7---|-------------------5--|------------------------| 
D|----------------|----------------------|------------------------| 
A|----------------|----------------------|------------------------|
E|----------------|----------------------|------------------------|

 
                             
  

E|--14--12--14--14--|--12--14--16--|--14--10---10--7---------------|
B|--13--10--13--13--|--10--13--15--|--13--12---12--8---------------|
G|------------------|--------------|-------------------------------|
D|------------------|--------------|-------------------------------|
A|------------------|--------------|-------------------------------|
E|------------------|--------------|-------------------------------| 


E|-------------------------------------------------------15--17--15--12--11--10-| 
B|-7h9-7h9-7h9-7h9-7h9-7h9-7h9-7h9-7h9-7h9--11--9--10~~------------------------/ 
G|-----------------------------------------------------------------------------| 
D|-----------------------------------------------------------------------------| 
A|-----------------------------------------------------------------------------| 
E|-----------------------------------------------------------------------------|


                                                         OBS\: neste ultimo *10 arrastar
                                                          a nota até o final do braço

E|--------------------------------------------------------------------| 
B|--7h9-7h9-7h9-7h9-7h9-7h9-7h9-7h9-7h9-7h9--11--9--10~~--*10---------| 
G|--------------------------------------------------------------------| 
D|--------------------------------------------------------------------| 
A|--------------------------------------------------------------------| 
E|--------------------------------------------------------------------|


* FAZER ESTA PRÓXIMA PARTE ABAFANDO AS CORDAS *


E|-------------------------------------12-12----15-15-----12-12-----15-15----12-12-12-12-12-12-12-12-| 
B|-------------------12-12----15-15------------------------------------------------------------------| 
G|--12-12----14-14-----------------------------------------------------------------------------------| 
D|---------------------------------------------------------------------------------------------------| 
A|---------------------------------------------------------------------------------------------------| 
E|---------------------------------------------------------------------------------------------------|


E|--17-17-17--19--17-17-17--19---17-17-17---19-17-19-17-17---15-15-15---17-17---10-10-10-------------|
B|---------------------------------------------------------------------------------------------------| 
G|---------------------------------------------------------------------------------------------------|
D|---------------------------------------------------------------------------------------------------| 
A|---------------------------------------------------------------------------------------------------|
E|---------------------------------------------------------------------------------------------------| 


E|------------------------------------------3----------3------------| 
B|---------------------------3--3----5---------5--------5--4--5~~~~-| 
G|---0------2--2----4-----------------------------------------------| 
D|--------------------------------------------------------------------| 
A|--------------------------------------------------------------------| 
E|--------------------------------------------------------------------|


E|---5-5---7---5-----7----5-----7-5-7-5---7-----5-4-----------------| 
B|---------------------------------------------------------------| 
G|--------------------------------------------------------------------| 
D|--------------------------------------------------------------------| 
A|--------------------------------------------------------------------| 
E|--------------------------------------------------------------------|


E|---5-7-5-7-5----3-4-5----7-5-7-5--4-3-------------------------------| 
B|----------------------------------------7-6-5-4---------------------| 
G|--------------------------------------------------------------------| 
D|--------------------------------------------------------------------| 
A|--------------------------------------------------------------------| 
E|--------------------------------------------------------------------|


E|---5-7-5-7-5----3-4-5----7-5-7-5--4-3-------------------------------| 
B|----------------------------------------7-6-5-4---------------------| 
G|--------------------------------------------------------------------| 
D|--------------------------------------------------------------------| 
A|--------------------------------------------------------------------| 
E|--------------------------------------------------------------------|


E|--5-7-5-7-5----3-4-5----7-5-7-5--4-3-----4--3--2--1--2--------------| 
B|-----------------------------------------4--3--2--1--2--------------| 
G|--------------------------------------------------------------------| 
D|--------------------------------------------------------------------| 
A|--------------------------------------------------------------------| 
E|--------------------------------------------------------------------|

Comentários 9

140 .
  • Moyses Moyses: Em 24/08/2015 - 21:55

    Esta musica me traz ótimas recordações do tempo de minha infância e adolescência motivo pelo qual me fez ouvi-la varias vezes. Saudades

  • Edson Edson: Em 04/01/2015 23:11

    Sera que esta certa ?

  • thehardcte thehardcte: Em 07/07/2013 20:48

    mto legal realmente tem erros mas consegui corrigir ouvindo com atenção.

  • Jeferson Jeferson: Em 08/04/2013 14:14

    boa musica

  • luckaspark luckaspark: Em 02/01/2013 13:47

    Tem coisa errada aí!

  • thehardcte thehardcte: Em 12/09/2012 12:01

    blz vo tentar corrigir...

  • johnnyguitarra johnnyguitarra: Em 04/08/2011 16:49

    Olá pessoal tudo bem.....esta tablatura está incorreta alguem poderia corrigi-la obrigado...

    • lcsiqueira lcsiqueira: Em 11/01/2013 13:41

      Dei uma olhada rapidinho e vi que tem erros. Vou corrigir, deixa eu ter um tempinho aqui

140 cancelar
0:00 / 0:00

Capítulos

    2 versões de Guitar Proformatodownloadscontribuição
    1 versão de partiturasformatodownloadscontribuição
    play/pausefechar subir/descer velocidade
    6ª corda E5ª corda A4ª corda D3ª corda G2ª corda B1ª corda E
      acordes
      publicidad
      fechar
      ok