Osvaldir e Carlos Magrão

Céu Sol Sul Terra e Cor

76.722 exibições
Tom: C
Intr: 2X (C F C F C G7 C)

Solo Inicial e tocado com o refrão:


E|-------------------------5-7---|-----8-8-8-8-7-5---|-------------------|
B|5-6-8-8-8-8-8-8-8-5-8/13-----8-|-----------------8-|-5-5-5-5-5-6-5-----|
G|-------------------------------|-5-5---------------|---------------7-5-|
D|-------------------------------|-------------------|-------------------|
A|-------------------------------|-------------------|-------------------|
E|-------------------------------|-------------------|-------------------|



E|-------------------------10-8-12-|-8-8-13-13-13-13-12-10----|------------------------|
B|5-6-8-8-8-8-8-8-8-5-8/13---------|-----------------------13-|------------------------|
G|---------------------------------|--------------------------|-12-10-9-10-12-10-------|
D|---------------------------------|--------------------------|------------------12-10-|
A|---------------------------------|--------------------------|------------------------|
E|---------------------------------|--------------------------|------------------------|


     C                                      F                    C
Eu quero andar nas coxilhas sentindo as flexilhas das ervas do chão
        Am                F                   D7                   G7
Ter os pés roseteados de campo ficar mais trigueiro que o sol de verão
       C                    F               E       Am
Fazer versos cantando as belezas desta natureza sem par
       F                    C                  G7         C   G7
E mostrar para quem quiser ver um lugar pra viver sem chorar      Bis

      C
(É o meu Rio Grande do Sul
           F            C
Céu, sol, sul, terra e cor
      F                   C      Refrão - Bis
Onde tudo que se planta cresce
                 G7         C
E o que mais floresce é o amor)
Int.
     C                                       F         C
Eu quero me banhar nas fontes e olhar o horizonte com deus
      Am                    F               D7                   G7
E sentir que as cantigas nativas continuam vivas para os filhos meus
        C                  F                 E         Am
Ver os campos florindo e crianças sorrindo felizes a cantar
       F                    C                  G7         C   G7
E mostrar para quem quiser ver um lugar pra viver sem chorar      Bis

Refrão

Solo Final e tocado com as duas estrofes:


E|-------------------------8-8-8-8-7-5---|-5-------------------------------------------|
B|-5-6-8-8-8-8-8-8-8-8-8-8-------------8-|---8-5-5-5-5-5-5-5---------------------------|
G|---------------------------------------|-------------------5-5-5-5-5-5-7-7-7-7-5-4---|
D|---------------------------------------|-------------------------------------------5-|
A|---------------------------------------|---------------------------------------------|
E|---------------------------------------|---------------------------------------------|



E|-------------------5-5-5-5-5-5-7-8-7-8-|-8-8-13-13-13-13-12-10------------------------------|
B|-5-6-8-8-8-8-8-8-8---------------------|-----------------------13---------------------------|
G|---------------------------------------|--------------------------12-12-10-9-10-12-10-------|
D|---------------------------------------|----------------------------------------------12-10-|
A|---------------------------------------|----------------------------------------------------|
E|---------------------------------------|----------------------------------------------------|

Comentários 1

conseguiu tocar?

  • m.shawncrahan
  • luisgustavopena
  • pedro
  • junior423
  • mateus.picoli.5
  • rodrigoslam
  • RóGeS

covers

Grave um vídeo tocando Céu Sol Sul Terra e Cor e mande pra gente!

Ex.: http://www.youtube.com/watch?v=0IvSvIwGdwk
ver covers de outras músicas »
0:00 / 0:00

Capítulos

    1 versão de violãodificuldadeexibiçõescontribuição e correção
    1 versão de guitarradificuldadeexibiçõescontribuição e correção
    1 versão de cavacodificuldadeexibiçõescontribuição e correção
    1 versão de tecladodificuldadeexibiçõescontribuição e correção
    play/pausefechar subir/descer velocidade
    6ª corda E5ª corda A4ª corda D3ª corda G2ª corda B1ª corda E
      acordes
      publicidad
      fechar
      ok