Como é grande o meu amor por você

Oswaldo Montenegro

 Oswaldo Montenegro
Tom: F
		
Solo Violão 1 (repetir este solo durante o soloViolão 2)


E|------------0-----0--------------------------------------------------
B|--------1------3-----------------------------------------------------
G|---------------------------------------------------------------------
D|-----3------------3--------------------------------------------------
A|---------------------------------------------------------------------
E|---------------------------------------------------------------------



E|---------------------------------------------------------------------
B|----------6-----6----------------------------------------------------
G|-------7-----9-------------------------------------------------------
D|----8----------------------------------------------------------------
A|---------------------------------------------------------------------
E|---------------------------------------------------------------------


Solo Violão 2 


E|---------------------------------------------------------------------
B|---10--10--13--13--11--11--10--10------------10----------------------
G|-----------------------------------12--10--12------------------------
D|---------------------------------------------------------------------
A|---------------------------------------------------------------------
E|---------------------------------------------------------------------



E|--13-13-13-12-12-10--10--------10------------------------------------
B|------------------------13--13----13---------------------------------
G|---------------------------------------------------------------------
D|---------------------------------------------------------------------
A|---------------------------------------------------------------------
E|---------------------------------------------------------------------


F           Bb              C 
  Eu tenho tanto pra lhe falar
           F                     Am7 G#m7/5- 
Mas com palavras não sei dizer
    Gm7        C               F    
Como é grande o meu amor por você
      Gm7         C
E não há nada pra comparar
      F              Am7 G#m7/5- 
Para poder lhe explicar
        Gm7           C         F      Am7 G#m7/5-   
Como é grande o meu amor por você
      Gm7           C7
Nem mesmo o céu, nem as estrelas
      F7+        Dm7 
Nem mesmo o mar  e o infinito
    Gm7               C7
Não é maior que o meu amor
            F        Am7 G#m7/5-             
Nem mais bonito
   Gm7         C7
Me desespero a procurar
     F7+         Dm7  
Alguma forma de lhe falar
        Gm7         G7          C
Como é grande o meu amor por você
         Bb                C7  
Nunca se esqueça nenhum segundo
                F7+          Am7 G#m7/5-
Que eu tenho o amor maior do mundo
       Gm7            C7        F  
Como é grande o meu amor por você
71.087 exibições

Comentários 0

Composição: Antonio Luiz / Joyce / Roberto Carlos
Esse não é o compositor? Avise-nos.
Contribuição: guilhermelima Correções: V.inny »
Exibir acordes »
publicidade
fechar