Hoje ainda é dia de rock

Oswaldo Montenegro

 Oswaldo Montenegro
Tom: E
		
Riff

e|-----------|-----------|-----------|-----------|
B|-----------|-----------|-----------|-----------|
G|-----------|-----------|-----------|-----------|
D|-----------|-----------|-----------|-----------|
A|-----------|-0-3/5-5-5-|-----------|-3-5/7-7-7-|
E|-0-3/5-5-5-|-----------|-0-3/5-5-5-|-----------|


Riff-2

e|-----------|-----------|-----------|-----------|
B|-----------|-----------|-----------|-----------|
G|-----------|-----------|-----------|-----------|
D|-----------|-----------|-----------|-----------|
A|-----------|-0-3/5-5-5-|-----0-3/5-|-----------|
E|-0-3/5-5-5-|-----------|-0-3/5-----|-0-3--5----|


Riff-2*(igual a riff-2 apenas trocar a ultima parte por:

    e|-----------|
    B|-----------|
    G|-----------|
    D|-----------|
    A|-----------|
    E|-0-3/5-5-5-|  


Intro - Riff - Riff-2

Riff
Eu tô doidin por uma viola
Mãe e pai, de doze cordas e quatro cristais

Riff-2*
Pra eu poder tocar lá na cidade
Mãe e pai, esse meu blues de Minas Gerais

Riff
Eu tô doidin por um pianin
Mãe e pai, de caixa Leslie e amplificador

Riff-2*
Pra eu poder tocar lá na cidade
Mãe e pai, um rockizinho para o meu amor

Intro.

Riff
Eu tô doidin por uma viola
Mãe e pai, de doze cordas e quatro cristais

Riff-2*
Pra eu poder tocar lá na cidade
Mãe e pai, esse meu blues de Minas Gerais

Riff
Eu tô doidin por um pianin
Mãe e pai, de caixa Leslie e amplificador

Riff-2*
Pra eu poder tocar lá na cidade
Mãe e pai, um rockizinho para o meu amor

           E                     C
Depois formar a minha eletrobanda
            A                    E
Que vai deixar as outras no roncó

Riff-2*
Eu descobri e acho que foi a tempo
Mãe e pai, que hoje ainda é dia de rock

             E              C
Que hoje ainda é dia de rock
             A              E
Que hoje ainda é dia de rock

Riff-2*
Eu descobri olhando o milho verde
Mãe e pai que hoje ainda é dia de rock

(Solo de Violoncelo)

             E              C
Porque hoje ainda é dia de rock
             A              E
Porque hoje ainda é dia de rock

Riff-2*
Eu descobri olhando o milho verde
Mãe e pai que hoje ainda é dia de rock

Intro.
15.772 exibições

Comentários 0

Composição: Zé Rodrix
Esse não é o compositor? Avise-nos.
Contribuição: Léo
Consegui tocarAinda não conseguiram tocar essa música. Seja o primeiro!
    Não consegui tocar
    Exibir acordes »
    publicidade
    fechar