Protoype

OutKast

 OutKast
Tom: C
		
Intro:

e-----------------------3h5---3---7/8---7-------|
B-3h5---3---5-----------------------------------|
G--------------4--------------------------------|
D-----------------------------------------------|
A-----------------------------------------------|
E-----------------------------------------------|


solo:


e-------------------------------------------------------------------------|
B-10-----11b12r11-8-6-----------------------------------------------------|
G---------------------9-5-----4h5p4h5p4h5p4h5-6/1-------------------------|
D-------------------------------------------------------------------------|
A-------------------------------------------------------------------------|
E-------------------------------------------------------------------------|



e-------------------------------------------------------------------------|
B------1--3~---4~----4b5r4-1---1------------------------------------------|
G-1/3------------------------2--------------------------------------------|
D-------------------------------------------------------------------------|
A-------------------------------------------------------------------------|
E-------------------------------------------------------------------------|



e-------------------------9-12-9---------9-11b13r11-12-11-9----------------|
B-----2-4-2----------7/11--------12---12--------------------12-------------|
G-1/3-------3--31----------------------------------------------------------|
D--------------------------------------------------------------------------|
A--------------------------------------------------------------------------|
E--------------------------------------------------------------------------|
542 exibições

Comentários 0

Consegui tocarAinda não conseguiram tocar essa música. Seja o primeiro!
    Não consegui tocar
    Exibir acordes »
    publicidade
    fechar