Tom: B
		
 B                          F#
Hoje eu acordei, me veio a falta de você
    C#m              E
Saudade de você, saudade de você
       B                       F#
Lembrei que me acordava de manhã só pra dizer:
      C#m
"Bom dia, meu bebê!
   E
Te amo, meu bebê!"

Solo Introdução:

Primeira Parte


E|----7--------------------------------|
B|--9---7-9-10-9-------7-10-9-7---7----|
G|-----------------9-6-----------9---9-|
D|-------------------------------------|
A|-------------------------------------|
E|-------------------------------------|


Segunda Parte


E|----7--------------12-11-9----------|
B|--9---7-9-10-9------------9-10-12-9-|
G|-----------------9------------------|
D|------------------------------------|
A|------------------------------------|
E|------------------------------------|


B
Foi bonito, foi
F#            C#m
Foi intenso, foi verdadeiro
E
Mas sincero
B              F#
Sei que fui capaz
           C#m
Fiz até demais
       E
Te quis do teu jeito
B        F#
Te amei, te mostrei
C#m                   E
Que o meu amor foi o mais profundo
B        F#
Me doei, me entreguei
     C#m      E
Fui fiel! Chorei, chorei...

 B                          F#
Hoje eu acordei, me veio a falta de você
    C#m              E
Saudade de você, saudade de você
     B                         F#
Lembrei que me acordava de manhã só pra dizer:
      C#m
"Bom dia, meu bebê!
   E
Te amo, meu bebê!"
10.526 exibições

Comentários 1

  • victor235 victor235: Postado em 15/09/2013 19:39

    Aprenda a tocar "Fui fiel" no violão e cante a música junto!: watch?v=sw5fVwq4cOI (no Youtube)

Exibir acordes »
publicidade
fechar