Fui Fiel

Pablo

 Pablo
Tom: C
		
 C                          G
Hoje eu acordei, me veio a falta de você
    Dm              F
Saudade de você, saudade de você
     C                         G
Lembrei que me acordava de manhã só pra dizer:
      Dm
"Bom dia, meu bebê!
   F
Te amo, meu bebê!"

Solo Introdução:

Primeira Parte


E|----5-----------------------------|
B|--7---5-7-8-7-------5-8-7-5---5---|
G|----------------7-4----------7---9|
D|----------------------------------|
A|----------------------------------|
E|----------------------------------|


Segunda Parte


E|----5-------------10-9-7---------|
B|--7---5-7-8-7-----------7-8-10-7-|
G|----------------7----------------|
D|---------------------------------|
A|---------------------------------|
E|---------------------------------|


C
Foi bonito, foi
G                Dm
Foi intenso, foi verdadeiro
F
Mas sincero
C              G
Sei que fui capaz
           Dm
Fiz até demais
     F
Te quis do teu jeito
C       G
Te amei, te mostrei
Dm                   F
Que o meu amor foi o mais profundo
C        G
Me doei, me entreguei
     Dm      F
Fui fiel! Chorei, chorei...

 C                          G
Hoje eu acordei, me veio a falta de você
    Dm              F
Saudade de você, saudade de você
     C                         G
Lembrei que me acordava de manhã só pra dizer:
      Dm
"Bom dia, meu bebê!
   F
Te amo, meu bebê!"

Comentários 0

Composição: Pablo / Magno Santanna / Felipe Escandurras / Fabio O’Brian
Esse não é o compositor? Avise-nos.
Contribuição: Fredson
Exibir acordes »
publicidade
fechar