Cemetery Gates

Pantera

 Pantera
Tom: F#
		
Intro Riff


   Fm4
E|------------------|-----------------|----------------|------0-----------|
B|----------2-------|------0--0-------|------0--0------|----2-----2-------|
G|--------2---2-----|----4------4-----|----4------4----|--4---------4-----|
D|------2-----------|--2--------------|--2----------0--|------------------|
A|----4----------0--|-----------------|----------------|------------------|
E|--2---------------|--------------0--|----------------|------------------|



E|------------------|-----------------|----------------|---------0--------|
B|----------2-------|------0--0-------|------0--0------|--2--------2------|
G|--------2---2-----|----4------4-----|----4------4----|----4--------4----|
D|------2-----------|--2--------------|--2----------0--|------0--------0--|
A|----4----------0--|-----------------|----------------|------------------|
E|--2---------------|--------------0--|----------------|------------------|


Intro reescrita Por jonas de rarias

Riff 1


E|-12---11---10---9---12---11---10---9-|
B|-------------------------------------|
G|-------------------------------------|
D|-------------------------------------|
A|-------------------------------------|
E|-------------------------------------|



E|21--22b24r22--22b24r22--22b24--9--12-12b14-9-12b14--9-12b14-9-9/10--10/12--12/14--14/16--16/17~|
B|-----------------------------------------------------------------------------------------------|
G|-----------------------------------------------------------------------------------------------| { Final do
D|-----------------------------------------------------------------------------------------------|   Riff 1 }
A|-----------------------------------------------------------------------------------------------|
E|-----------------------------------------------------------------------------------------------|


Rhythm Fig 2 under guitar solo #1

E|--2--2-------2--------|--2--2--------2--------|
B|--5-----5-------5-----|--4-----4--------4-----|
G|--2--------2-------2--|--2--------2--------2--|
D|--2-------------------|--2--------------------|
A|--4-------------------|--4--------------------|
E|--2-------------------|--2--------------------|


         End of Rhythm Fig 2 under guitar solo #1

E|--2--2--------2--------|--2--2--------2--------|
B|--3-----3--------3-----|--2-----2--------2-----|
G|--2--------2--------2--|--2--------2--------2--|
D|--2--------------------|--2--------------------|
A|--4--------------------|--4--------------------|
E|--2--------------------|--2--------------------|


                 Fill #2 (Rhy Fig 3 Heavy Distortion)

E|----------------------------------------------|------------------------|
B|-----2h5---------------------------2----------|----------0-------------|
G|--2h4---------------------------2-------2-----|-------4---------4------|
D|------------------2--4-------2------------2---|----2---------------2---|
A|------------4--2----------4----------------0--|------------------------|
E|-----------------------2----------------------|---------------------0--|




|----------------------|--------0------------|
|--------0----4--------|-----2---------2-----|
|-----4----------2--0--|--4---------------4--|
|--2-------------------|---------------------|
|----------------------|---------------------|
|----------------------|---------------------|




E|-------------------------|------------------------|
B|--------------2----------|----------0-------------|
G|-----------2-----2-------|-------4----------4-----|
D|--------2----------2-----|----2---------------2---|
A|-----4---------------0---|------------------------|
E|--2----------------------|----------------------0-|



E|------------------------|---------0--------|
B|--------0---------------|--2--------2------|
G|-----4----------4-------|----4--------4----|
D|--2----------------2--0-|------0-----------|
A|------------------------|------------------|
E|------------------------|------------------|


Fill #1                                            End Fill #1

E|------0-------------0------|------------0-------------0-------|
B|------3-/-6---------5-/-7--|------------0-------------0-------|
G|--4---4-/-5---------6-/-7--|--7---------7-/-9---------9-/-11--|
D|-----------------0---------|--------0-------------0-----------|
A|---------------------------|----------------------------------|
E|---------------------------|----------------------------------|


 Fill #2 (Rhy Fig 3 Heavy Distortion)

E|-----------------------------|-------------------------|
B|-----------------------------|-------------------------|
G|-----------------------------|--4----------------------|
D|---2---2--2--2---2-1-2-3-2-3-|-----3-2-3---------------|
A|---0---0--0--0---------------|-------------------------|
E|-----------------------------|-------------------------|

                               P.H.       P.H.

End of Rhy Fig 3

E|-----------------------------|-------------------------|
B|-----------------------------|-------------------------|
G|-----------------------------|-------------------------|
D|---2---2--2--2---2-1-2-3-2-3-|-------------------------|
A|---0---0--0--0---------------|-----3-2--3--------------|
E|-----------------------------|-------------------------|

                               P.H.          P.H.

  Rhy Fig 4                         End of Rhy Fig 4

E|--------------------------|-----------------------|
B|--------------------------|-----------------------|
G|--------------------------|-----------------------|
D|-----------2--2--2--2--4--|--4--4--4--5-----------|
A|--4--4--4--0--0--0--0--2--|--2--2--2--3-----2--3--|
E|--2--2--2-----------------|-----------------0--1--|
Texto Colunas
Alterar tom ½ tom ½ tom
afinação acordes na letra esconder tabs mais »

Comentários 30

  • Natan Natan: Postado em 23/10/2014 - 21:05

    fazem uma video aula

  • Ezequiel Ezequiel: Postado em 12/02/2014 16:11

    Arruma ai cifra club ta td errada essa cifra pow Pantera mereçe né

    • Lord_Darrell Lord_Darrell: Postado em 26/06/2014 13:23

      Errado aonde??? está faltando apenas .

  • Bárbara Bárbara: Postado em 11/01/2014 00:17

    baixem a do guitar pro ^^

    • Matheus Matheus: Postado em 05/02/2014 05:05

      como obaixa o guitar pro sem paga? :s nunca achei

  • gabriel.lyra.r gabriel.lyra.r: Postado em 05/09/2013 00:49

    Cara,essa musica é muito foda.Pena que ta errada

  • hernanicd hernanicd: Postado em 22/07/2013 22:07

    Vo arrumar essa cifra...

  • rafael_zete rafael_zete: Postado em 07/06/2013 11:39

    video aula here :)

  • thayler thayler: Postado em 25/04/2013 22:59

    video aula por favor em homenagem ao dimebag darrell do pantera

  • Daniel Daniel: Postado em 06/04/2013 19:37

    esse intro ta certo?

Exibindo 10 de 30 comentários Mostrar mais ver todos »
Composição: Pantera
Esse não é o compositor? Avise-nos.
Contribuição: Soneca Correções: Jonas , SUED e mais 4 »
  1. Até Você Voltar - Henrique e Juliano Manteve-se 89.068 exibições
  2. Domingo de Manhã - Marcos e Belutti Manteve-se 75.634 exibições
  3. Cuida Bem Dela - Henrique e Juliano Manteve-se 52.032 exibições
  4. Diz Pra Mim - Banda Malta Manteve-se 44.849 exibições
  5. Raridade - Anderson Freire Manteve-se 42.974 exibições
  6. Recaídas - Henrique e Juliano Manteve-se 40.474 exibições
  7. Só Os Loucos Sabem - Charlie Brown Jr. Manteve-se 30.119 exibições
  8. Pra Você - Onze:20 Manteve-se 29.354 exibições
  9. Rude - Magic! Manteve-se 29.325 exibições
  10. Logo Eu - Jorge e Mateus Manteve-se 26.834 exibições
  1. Henrique e Juliano- Manteve-se 274.241 exibições
  2. Jorge e Mateus- Manteve-se 217.156 exibições
  3. Legião Urbana- Manteve-se 196.040 exibições
  4. Charlie Brown Jr.- Manteve-se 144.678 exibições
  5. Fernandinho- Manteve-se 117.224 exibições
  6. Bruno e Marrone- Manteve-se 114.687 exibições
  7. Luan Santana- Manteve-se 111.929 exibições
  8. Marcos e Belutti- Manteve-se 93.495 exibições
  9. Thalles Roberto- Manteve-se 92.673 exibições
  10. Victor e Leo- Manteve-se 91.876 exibições
Exibir acordes »

Cifras e tabs

Fórum Cifra Club

Aprenda

Cifra Club News

Mais Serviços Cifra Club ID

Studio Sol

©1996 - 2014 Cifra Club · o primeiro, maior e mais acessado do Brasil · 341 mil músicas · 6.3 milhões pessoas cadastradas

publicidade
fechar