The Art Of Shredding

Pantera

 Pantera
Tom: E
		

E|-------------------|-------------------|-------------------|
B|-------------------|-------------------|-------------------|
G|-------------------|-------------------|-------------------|
D|-------------------|-------------------|-------------------|
A|-------------------|-------------------|-------------------|
E|-------------------|-------------------|-------------------|


                                          With Wah

-------------------|-------------------|-----------------------------|
-------------------|-------------------|-----------------------------|
-------------------|-------------------|-----------------------------|
-------------------|-------------------|--2--------x--2--1--L--------|
-------------------|-------------------|--2--------x--2--1--L--------|
-------------------|-------------------|--0--------x-----------------|


                                              Pick slides

-------------------|-----------------------|-----------------------|
-------------------|-----------------------|-----------------------|
-------------------|-----------------------|-----------------------|
-------------------|--2--x--2--1--L--------|-----------------------|
-------------------|--2--x--2--1--L--------|--9\----------9--------|
-------------------|--0--x-----------------|-----------------------|



-----------------------|-------------------|
-----------------------|-------------------|
-----------------------|-------------------|
--2--x--2--1--L--------|-------------------|
--2--x--2--1--L--------|-------------------|
--0--x-----------------|-------------------|


           Wah off

----------------------------|--------------------|
----------------------------|--------------------|
----------------------------|--------------------|
--2--x--2--1-------L--------|--------------------|
--2--x--2--1-------L--------|--9\----------------|
--0--x----------------------|--------------------|



--------------------------|--------------------------|
--------------------------|--------------------------|
--------------------------|--------------------------|
-----------4-----2--------|--------------------------|
-----------------------5--|-----4--2-----0--3--------|
--0--2--------------------|-----------3--------4~----|



-------------------------|--------------------------|
-------------------------|--------------------------|
-------------------------|--------------------------|
----------4b----2b-------|--------------------------|
----------------------5--|-----4--2-----0--3--------|
--0--2-------------------|-----------3--------4~----|



--------------------------|--------------------------|
--------------------------|--------------------------|
--------------------------|--------------------------|
-----------4-----2--------|--------------------------|
-----------------------5--|-----4--2-----0--3--------|
--0--2--------------------|-----------3--------4~----|



-------------------------|--------------------------|
-------------------------|--------------------------|
-------------------------|--------------------------|
----------4b----2b-------|--------------------------|
----------------------5--|-----4--2-----0--3--------|
--0--2-------------------|-----------3--------4~----|



--------------------------|----------------------------|
--------------------------|----------------------------|
--------------------------|----------------------------|
--4-----4-----2-----2-----|----------------------------|
-----2-----2-----2-----2--|--5-5-4--5-5-4--5--4--2--0--|
--------------------------|----------------------------|



--------------------------|----------------------------|
--------------------------|----------------------------|
--------------------------|----------------------------|
--4-----4-----2-----2-----|----------------------------|
-----2-----2-----2-----2--|--5-5-4--5-5-4--5--4--2--0--|
--------------------------|----------------------------|



--------------------------|----------------------------|
--------------------------|----------------------------|
--------------------------|----------------------------|
--------------------------|----------------------------|
--4-----4-----2-----2-----|----------------------------|
-----2-----2-----2-----2--|--5-5-4--5-5-4--5--4--2--0--|



--------------------------|----------------------------|
--------------------------|----------------------------|
--------------------------|----------------------------|
--------------------------|----------------------------|
--4-----4-----2-----2-----|----------------------------|
-----2-----2-----2-----2--|--5-5-4--5-5-4--5--4--2--0--|



--------------------------|----------------------------|
--------------------------|----------------------------|
--------------------------|----------------------------|
--4-----4-----2-----2-----|----------------------------|
-----2-----2-----2-----2--|--5-5-4--5-5-4--5--4--2--0--|
--------------------------|----------------------------|



--------------------------|----------------------------|
--------------------------|----------------------------|
--------------------------|----------------------------|
--4-----4-----2-----2-----|----------------------------|
-----2-----2-----2-----2--|--5-5-4--5-5-4--5--4--2--0--|
--------------------------|----------------------------|



---------------------------|----------------------------------|
---------------------------|----------------------------------|
---------------------------|----------------------------------|
--6-----6-----7-----7------|--6-6-----6-6-----7-7-----7-7-----|
-----4-----4-----4-----4-4-|------4-4-----4-4-----4-4-----4-4-|
---------------------------|----------------------------------|



-----------------------|-------------------------|
-----------------------|-------------------------|
-----------------------|-------------------------|
--6----L--6----L--6----|--L--6--L----6--L--6--L--|
--4----L--4----L--4----|--L--4--L----4--L--4--L--|
-----------------------|-------------------------|



--------------------------|----------------------------|
--------------------------|----------------------------|
--------------------------|----------------------------|
--------------------------|---------------------8s--7--|
--------5-----8--------7--|-----10--------8-----6s--5--|
--0--0--3--0--6--0--0--5--|--0---8--0--0--6--0---------|



--------------------------|----------------------------|
--------------------------|----------------------------|
--------------------------|----------------------------|
--------------------------|---------------------8s--7--|
--------5-----8--------7--|-----10--------8-----6s--5--|
--0--0--3--0--6--0--0--5--|--0---8--0--0--6--0---------|



--------------------------|----------------------------|
--------------------------|----------------------------|
--------------------------|----------------------------|
--------------------------|---------------------8s--7--|
--------5-----8--------7--|-----10--------8-----6s--5--|
--0--0--3--0--6--0--0--5--|--0---8--0--0--6--0---------|



--------------------------|----------------------------|
--------------------------|----------------------------|
--------------------------|----------------------------|
--------------------------|---------------------8s--7--|
--------5-----8--------7--|-----10--------8-----6s--5--|
--0--0--3--0--6--0--0--5--|--0---8--0--0--6--0---------|



--------------------------|----------------------------|
--------------------------|----------------------------|
--------------------------|----------------------------|
--------------------------|---------------------8s--7--|
--------5-----8--------7--|-----10--------8-----6s--5--|
--0--0--3--0--6--0--0--5--|--0---8--0--0--6--0---------|



--------------------------|----------------------------|
--------------------------|----------------------------|
--------------------------|----------------------------|
--------------------------|---------------------8s--7--|
--------5-----8--------7--|-----10--------8-----6s--5--|
--0--0--3--0--6--0--0--5--|--0---8--0--0--6--0---------|



--------------------------|----------------------------|
--------------------------|----------------------------|
--------------------------|----------------------------|
--------------------------|---------------------8s--7--|
--------5-----8--------7--|-----10--------8-----6s--5--|
--0--0--3--0--6--0--0--5--|--0---8--0--0--6--0---------|



------------------------|---------------------|
------------------------|---------------------|
------------------------|---------------------|
--3-------3--4-------4--|--3------------------|
--1-------1--2-------2--|--1---------5--------|
------------------------|------------3--------|



-------------------------|--------------------------|
-------------------------|--------------------------|
-------------------------|--------------------------|
-------------------------|--------------------------|
--2----------------------|--------------------------|
--0----0--0--0--0--0--0--|--0--0--0--0--0--0--0--0--|



---------------------------|-------------------------|
---------------------------|-------------------------|
---------------------------|-------------------------|
---------------------------|-------------------------|
--4S--6--------------------|-----------6--------6----|
--2S--4--4--4--4--4--4--4--|--4--4--4--4--4--4--4----|



-------------------------|--------------------------|
-------------------------|--------------------------|
-------------------------|--------------------------|
-------------------------|--------------------------|
--2----------------------|--------------------------|
--0----0--0--0--0--0--0--|--0--0--0--0--0--0--0--0--|



---------------------------|---------------------------|
---------------------------|---------------------------|
---------------------------|---------------------------|
--3--------3S--4--------4--|--3--------3S--4--------4--|
--1--1--1--1S--2--2--2--2--|--1--1--1--1S--2--2--2--2--|
---------------------------|---------------------------|



-------------------------|--------------------------|
-------------------------|--------------------------|
-------------------------|--------------------------|
-------------------------|--------------------------|
--2----------------------|--------------------------|
--0----0--0--0--0--0--0--|--0--0--0--0--0--0--0--0--|



---------------------------|-------------------------|
---------------------------|-------------------------|
---------------------------|-------------------------|
---------------------------|-------------------------|
--4S--6--------------------|-----------6--------6----|
--2S--4--4--4--4--4--4--4--|--4--4--4--4--4--4--4----|



-------------------------|--------------------------|
-------------------------|--------------------------|
-------------------------|--------------------------|
-------------------------|--------------------------|
--2----------------------|--------------------------|
--0----0--0--0--0--0--0--|--0--0--0--0--0--0--0--0--|



------------------------|-----------------------|
------------------------|-----------------------|
------------------------|-----------------------|
--3-------3--4-------4--|--3--------------------|
--1-------1--2-------2--|--1--------------------|
------------------------|-----------------6\----|



--------------------------|----------------------------|
--------------------------|----------------------------|
--------------------------|----------------------------|
--------------------------|---------------------8s--7--|
--------5-----8--------7--|-----10--------8-----6s--5--|
--0--0--3--0--6--0--0--5--|--0---8--0--0--6--0---------|



--------------------------|-----------------------------|
--------------------------|-----------------------------|
--------------------------|-----------------------------|
--------------------------|-----------------------------|
--------5-----8--------7--|-----10-----8S--7--7S--6--6--|
--0--0--3--0--6--0--0--5--|--0---8--0--6S--5--5S--4--4--|



--------------------------|----------------------------|
--------------------------|----------------------------|
--------------------------|----------------------------|
--------------------------|---------------------8s--7--|
--------5-----8--------7--|-----10--------8-----6s--5--|
--0--0--3--0--6--0--0--5--|--0---8--0--0--6--0---------|



--------------------------|-------------------------|
--------------------------|-------------------------|
--------------------------|-------------------------|
--------------------------|-------------------------|
--------5-----8--------7--|-----10-----8----8----8--|
--0--0--3--0--6--0--0--5--|--0---8--0--6----6----6--|



--------------------|-------------------------------|
--------------------|-------------------------------|
--------------------|-------------------------------|
-----------4--------|--------------------------L----|
-----------2--------|--------------------------L----|
-----------2--------|--------------------------L----|



-------------------------|--------------------------|
-------------------------|--------------------------|
-------------------------|--------------------------|
-------------------------|--------------------------|
--2----------------------|--------------------------|
--0----0--0--0--0--0--0--|--0--0--0--0--0--0--0--0--|



---------------------------|-------------------------|
---------------------------|-------------------------|
---------------------------|-------------------------|
---------------------------|-------------------------|
--4S--6--------------------|-----------6--------6----|
--2S--4--4--4--4--4--4--4--|--4--4--4--4--4--4--4----|



-------------------------|--------------------------|
-------------------------|--------------------------|
-------------------------|--------------------------|
-------------------------|--------------------------|
--2----------------------|--------------------------|
--0----0--0--0--0--0--0--|--0--0--0--0--0--0--0--0--|



---------------------------|---------------------------|
---------------------------|---------------------------|
---------------------------|---------------------------|
--3--------3S--4--------4--|--3--------3S--4--------4--|
--1--1--1--1S--2--2--2--2--|--1--1--1--1S--2--2--2--2--|
---------------------------|---------------------------|



-------------------------|--------------------------|
-------------------------|--------------------------|
-------------------------|--------------------------|
-------------------------|--------------------------|
--2----------------------|--------------------------|
--0----0--0--0--0--0--0--|--0--0--0--0--0--0--0--0--|



---------------------------|-------------------------|
---------------------------|-------------------------|
---------------------------|-------------------------|
---------------------------|-------------------------|
--4S--6--------------------|-----------6--------6----|
--2S--4--4--4--4--4--4--4--|--4--4--4--4--4--4--4----|



-------------------------|--------------------------|
-------------------------|--------------------------|
-------------------------|--------------------------|
-------------------------|--------------------------|
--2----------------------|--------------------------|
--0----0--0--0--0--0--0--|--0--0--0--0--0--0--0--0--|



------------------------|-----------------------|
------------------------|-----------------------|
------------------------|-----------------------|
--3-------3--4-------4--|--3--------------------|
--1-------1--2-------2--|--1--------------------|
------------------------|-----------------6\----|



--------------------------|----------------------------|
--------------------------|----------------------------|
--------------------------|----------------------------|
--------------------------|---------------------8s--7--|
--------5-----8--------7--|-----10--------8-----6s--5--|
--0--0--3--0--6--0--0--5--|--0---8--0--0--6--0---------|



--------------------------|-----------------------------|
--------------------------|-----------------------------|
--------------------------|-----------------------------|
--------------------------|-----------------------------|
--------5-----8--------7--|-----10-----8S--7--7S--6--6--|
--0--0--3--0--6--0--0--5--|--0---8--0--6S--5--5S--4--4--|



--------------------------|----------------------------|
--------------------------|----------------------------|
--------------------------|----------------------------|
--------------------------|---------------------8s--7--|
--------5-----8--------7--|-----10--------8-----6s--5--|
--0--0--3--0--6--0--0--5--|--0---8--0--0--6--0---------|



--------------------------|-----------------------------|
--------------------------|-----------------------------|
--------------------------|-----------------------------|
--------------------------|-----------------------------|
--------5-----8--------7--|-----10-----8S--7--7S--6--6--|
--0--0--3--0--6--0--0--5--|--0---8--0--6S--5--5S--4--4--|



--------------------------|----------------------------|
--------------------------|----------------------------|
--------------------------|----------------------------|
--------------------------|---------------------8s--7--|
--------5-----8--------7--|-----10--------8-----6s--5--|
--0--0--3--0--6--0--0--5--|--0---8--0--0--6--0---------|



--------------------------|-----------------------------|
--------------------------|-----------------------------|
--------------------------|-----------------------------|
--------------------------|-----------------------------|
--------5-----8--------7--|-----10-----8S--7--7S--6--6--|
--0--0--3--0--6--0--0--5--|--0---8--0--6S--5--5S--4--4--|



--------------------------|----------------------------|
--------------------------|----------------------------|
--------------------------|----------------------------|
--------------------------|---------------------8s--7--|
--------5-----8--------7--|-----10--------8-----6s--5--|
--0--0--3--0--6--0--0--5--|--0---8--0--0--6--0---------|



--------------------------|-----------------------------|
--------------------------|-----------------------------|
--------------------------|-----------------------------|
--------------------------|-----------------------------|
--------5-----8--------7--|-----10-----8S--7--7S--6--6--|
--0--0--3--0--6--0--0--5--|--0---8--0--6S--5--5S--4--4--|



------------------------|-------------------------|
------------------------|-------------------------|
------------------------|-------------------------|
------------------------|-------------------------|
--7-------7-------7-----|-----7----------------5--|
-----6-------6-------5--|--------6----5--6--7-----|



----------------------|-------------------|------------------------|
----------------------|-------------------|------------------------|
----------------------|-------------------|------------------------|
----------------------|-------------------|------------------------|
--7\------------------|-------------------|--7-------7-------7-----|
----------------------|-------------------|-----6-------6-------5--|



-------------------------|------------------------|
-------------------------|------------------------|
-------------------------|------------------------|
-------------------------|------------------------|
-----7----------------5--|--7-------7-------7-----|
--------6----5--6--7-----|-----6-------6-------5--|



-------------------------|---------------------------|
-------------------------|---------------------------|
-------------------------|---------------------------|
-------------------------|--9S--8----9S--8----9S--8--|
-----7----------------5--|--7S--6----7S--6----7S--6--|
--------6----5--6--7-----|---------------------------|



----------------------------------|---------------------------|
----------------------------------|---------------------------|
----------------------------------|---------------------------|
----------------------------------|--9S--8----9S--8----9S--8--|
--6-6-6-6-6-6-6-6-6-6-6-6-6-6-6-6-|--7S--6----7S--6----7S--6--|
----------------------------------|---------------------------|



----------------------------------|---------------------------|
----------------------------------|---------------------------|
----------------------------------|---------------------------|
----------------------------------|--9S--8----9S--8----9S--8--|
--5-5-5-5-5-5-5-5-5-5-5-5-5-5-5-5-|--7S--6----7S--6----7S--6--|
----------------------------------|---------------------------|



----------------------------------|---------------------------|
----------------------------------|---------------------------|
----------------------------------|---------------------------|
----------------------------------|--9S--8----9S--8----9S--8--|
--6-6-6-6-6-6-6-6-6-6-6-6-6-6-6-6-|--7S--6----7S--6----7S--6--|
----------------------------------|---------------------------|



----------------------------------|------------------------|
----------------------------------|------------------------|
----------------------------------|------------------------|
----------------------------------|------------------------|
--5-5-5-5-5-5-5-5-5-5-5-5-5-5-5-5-|--7-------7-------7-----|
----------------------------------|-----6-------6-------5--|



-------------------------|---------------------------|
-------------------------|---------------------------|
-------------------------|---------------------------|
-------------------------|--9S--8----9S--8----9S--8--|
-----7----------------7--|--7S--6----7S--6----7S--6--|
--------6----5--6--7-----|---------------------------|



----------------------------------|---------------------------|
----------------------------------|---------------------------|
----------------------------------|---------------------------|
----------------------------------|--9S--8----9S--8----9S--8--|
--6-6-6-6-6-6-6-6-6-6-6-6-6-6-6-6-|--7S--6----7S--6----7S--6--|
----------------------------------|---------------------------|



----------------------------------|---------------------------|
----------------------------------|---------------------------|
----------------------------------|---------------------------|
----------------------------------|--9S--8----9S--8----9S--8--|
--5-5-5-5-5-5-5-5-5-5-5-5-5-5-5-5-|--7S--6----7S--6----7S--6--|
----------------------------------|---------------------------|



----------------------------------|---------------------------|
----------------------------------|---------------------------|
----------------------------------|---------------------------|
----------------------------------|--9S--8----9S--8----9S--8--|
--6-6-6-6-6-6-6-6-6-6-6-6-6-6-6-6-|--7S--6----7S--6----7S--6--|
----------------------------------|---------------------------|



----------------------------------|----------------------------|
----------------------------------|----------------------------|
----------------------------------|----------------------------|
----------------------------------|--3p--2-----3p--2-----3-----|
--5-5-5-5-5-5-5-5-5-5-5-5-5-5-5-5-|--1p--0-----1p--0-----1--2--|
----------------------------------|-------------------------0--|



-------------------------|----------------------------|
-------------------------|----------------------------|
-------------------------|----------------------------|
-------------------------|--3p--2-----3p--2-----3-----|
--L----2--2--2--2--2--2--|--1p--0-----1p--0-----1--3--|
--L----0--0--0--0--0--0--|-------------------------1--|



-------------------------|-----------------------------|
-------------------------|-----------------------------|
-------------------------|-----------------------------|
-------------------------|-----------------------------|
--L----3--3--3--3--3--3--|--3p--2-----3p--2-----3S--5--|
--L----1--1--1--1--1--1--|--1p--0-----1p--0-----1S--3--|



-------------------------|--------------------------|
-------------------------|--------------------------|
-------------------------|--------------------------|
-------------------------|--------------------------|
--L----5--5--5--5--5--4--|--L--4--4--3--L--3--3--3--|
--L----3--3--3--3--3--2--|--L--2--2--1--L--1--1--1--|



----------------------------|-------------------------|
----------------------------|-------------------------|
----------------------------|-------------------------|
--3p--2-----3p--2-----3-----|-------------------------|
--1p--0-----1p--0-----1--2--|--L----2--2--2--2--2--2--|
-------------------------0--|--L----0--0--0--0--0--0--|



----------------------------|-------------------------|
----------------------------|-------------------------|
----------------------------|-------------------------|
--3p--2-----3p--2-----3-----|-------------------------|
--1p--0-----1p--0-----1--3--|--L----3--3--3--3--3--3--|
-------------------------1--|--L----1--1--1--1--1--1--|



-----------------------------|------------------------|
-----------------------------|------------------------|
-----------------------------|------------------------|
-----------------------------|------------------------|
--3p--2-----3p--2-----3S--5--|------------L--x--5--4--|
--1p--0-----1p--0-----1S--3--|------------L--x--3--2--|



--------------------------|---------------------|
--------------------------|---------------------|
--------------------------|---------------------|
--------------------------|---------------------|
--L--x--4--3--L--x--3--5--|--6------------------|
--L--x--2--1--L--x--1--3--|--4------------------|



---------------------------|---------------------------|
---------------------------|---------------------------|
---------------------------|---------------------------|
---------------------------|---------------------------|
--6--------6S--7-----6-----|-----6S--7-----4-----4-----|
--4--4--4--4S--5--4--4--4--|--4--4S--5--0--2--0--2--0--|



---------------------------|---------------------------|
---------------------------|---------------------------|
---------------------------|---------------------------|
---------------------------|---------------------------|
--6--------6S--7-----6-----|-----6S--7-----3-----4-----|
--4--4--4--4S--5--4--4--4--|--4--4S--5--0--1--0--2--0--|



---------------------------|---------------------------|
---------------------------|---------------------------|
---------------------------|---------------------------|
---------------------------|---------------------------|
--6--------6S--7-----6-----|-----6S--7-----4-----4-----|
--4--4--4--4S--5--4--4--4--|--4--4S--5--0--2--0--2--0--|



---------------------------|---------------------------|
---------------------------|---------------------------|
---------------------------|---------------------------|
---------------------------|---------------------------|
--6--------6S--7-----6-----|-----6S--7-----3-----4-----|
--4--4--4--4S--5--4--4--4--|--4--4S--5--0--1--0--2--0--|



---------------------------|---------------------------|
---------------------------|---------------------------|
---------------------------|---------------------------|
---------------------------|---------------------------|
--6--------6S--7-----6-----|-----6S--7-----4-----4-----|
--4--4--4--4S--5--4--4--4--|--4--4S--5--0--2--0--2--0--|



--------------------------------|--------------------------|
--------------------------------|--------------------------|
--------------------------------|--------------------------|
--------------------------------|--------------------------|
--11--11--11--10--10--10--9--9--|--9--8--8--7--7--6--6--5--|
---9---9---9---8---8---8--7--7--|--7--6--6--5--5--4--4--3--|



-------------------|--------------------|-------------------|
-------------------|--------------------|-------------------|
-------------------|--------------------|-------------------|
--5----------------|--L-----------------|-------------------|
--3----------------|--L-----------------|-------------------|
-------------------|--------------------|-------------------|



-------------------|-------------------|-------------------|
-------------------|-------------------|-------------------|
-------------------|-------------------|-------------------|
-------------------|-------------------|-------------------|
-------------------|-------------------|-------------------|
-------------------|-------------------|-------------------|



-------------------|-------------------|-----------------------|
-------------------|-------------------|-----------------------|
-------------------|-------------------|--x-x-x-x--------------|
-------------------|-------------------|--x-x-x-x--------------|
-------------------|-------------------|-----------------------|
-------------------|-------------------|-----------------------|



-------------------|-------------------|---------------------|
-------------------|-------------------|---------------------|
-------------------|-------------------|------------------7--|
-------------------|-------------------|------------------7--|
-------------------|-------------------|------------------5--|
-------------------|-------------------|---------------------|



-------------------------|-------------------------|
-------------------------|-------------------------|
--L----------------------|----------------------2--|
--L--------2----------3--|--L--------5----------2--|
--L--5--5--2----------3--|--L--------5----------0--|
-----------0----0--0--1--|--L--1--1--3----2--2-----|



-------------------|--------------------|-------------------------|
-------------------|--------------------|-------------------------|
--L----------------|--L------------7----|--L----------------------|
--L----------------|--L------------7----|--L--------2----------3--|
--L----------------|--L------------5----|--L--5--5--2----------3--|
-------------------|--------------------|-----------0----0--0--1--|



-------------------------|--------------------------|
-------------------------|--------------------------|
----------------------2--|--L-----2--------------2--|
--L--------5----------2--|--L-----2--------------2--|
--L--------5----------0--|--L--0--0-----------0--0--|
--L--1--1--3----3--3-----|-------------3h--5--------|



--------------------------|--------------------------|
--------------------------|--------------------------|
--------2--------------7--|--L--------9----------10--|
--------2--------------7--|--L--------9----------10--|
--0--0--0----3h--5--0--5--|--L--5--5--7----7--7---8--|
--------------------------|--------------------------|



------------------------------|-------------------|
------------------------------|-------------------|
---L--------12------------14--|--L----------------|
---L--------12------------14--|--L----------------|
---L--8--8--10----10--10--12--|--L----------------|
------------------------------|-------------------|



--------------------|-------------------------|
--------------------|-------------------------|
--L------------7----|--L----------------------|
--L------------7----|--L--------2----------3--|
--L------------5----|--L--5--5--2----------3--|
--------------------|-----------0----0--0--1--|



-------------------------|--------------------------|
-------------------------|--------------------------|
----------------------4--|--L--------5--L--------7--|
--L--------5----------4--|--L--------5--L--------7--|
--L--------5----------2--|--L--2--2--3--L--3--3--5--|
--L--1--1--3----3--3-----|--------------------------|



-----------------------|--------------------------|
-----------------------|--------------------------|
--L--------8--------L--|--------------------------|
--L--------8--------L--|--------------------------|
--L--5--5--6--------L--|--------5-----8--------7--|
-----------------------|--0--0--3--0--6--0--0--5--|



----------------------------|--------------------------|
----------------------------|--------------------------|
----------------------------|--------------------------|
---------------------8s--7--|--------------------------|
-----10--------8-----6s--5--|--------5-----8--------7--|
--0---8--0--0--6--0---------|--0--0--3--0--6--0--0--5--|



-----------------------------|--------------------------|
-----------------------------|--------------------------|
-----------------------------|--------------------------|
-----------------------------|--------------------------|
-----10-----8S--7--7S--6--6--|--------5-----8--------7--|
--0---8--0--6S--5--5S--4--4--|--0--0--3--0--6--0--0--5--|



----------------------------|--------------------------|
----------------------------|--------------------------|
----------------------------|--------------------------|
---------------------8s--7--|--------------------------|
-----10--------8-----6s--5--|--------5-----8--------7--|
--0---8--0--0--6--0---------|--0--0--3--0--6--0--0--5--|



-----------------------------|--------------------------|
-----------------------------|--------------------------|
-----------------------------|--------------------------|
-----------------------------|--------------------------|
-----10-----8S--7--7S--6--6--|--------5-----8--------7--|
--0---8--0--6S--5--5S--4--4--|--0--0--3--0--6--0--0--5--|



----------------------------|--------------------------|
----------------------------|--------------------------|
----------------------------|--------------------------|
---------------------8s--7--|--------------------------|
-----10--------8-----6s--5--|--------5-----8--------7--|
--0---8--0--0--6--0---------|--0--0--3--0--6--0--0--5--|



-----------------------------|--------------------------|
-----------------------------|--------------------------|
-----------------------------|--------------------------|
-----------------------------|--------------------------|
-----10-----8S--7--7S--6--6--|--------5-----8--------7--|
--0---8--0--6S--5--5S--4--4--|--0--0--3--0--6--0--0--5--|



----------------------------|--------------------------|
----------------------------|--------------------------|
----------------------------|--------------------------|
---------------------8s--7--|--------------------------|
-----10--------8-----6s--5--|--------5-----8--------7--|
--0---8--0--0--6--0---------|--0--0--3--0--6--0--0--5--|



-----------------------------|--------------------------|
-----------------------------|--------------------------|
-----------------------------|--------------------------|
-----------------------------|--------------------------|
-----10-----8S--7--7S--6--6--|--------5-----8--------7--|
--0---8--0--6S--5--5S--4--4--|--0--0--3--0--6--0--0--5--|



----------------------------|--------------------------|
----------------------------|--------------------------|
----------------------------|--------------------------|
---------------------8s--7--|--------------------------|
-----10--------8-----6s--5--|--------5-----8--------7--|
--0---8--0--0--6--0---------|--0--0--3--0--6--0--0--5--|



-----------------------------|--------------------------|
-----------------------------|--------------------------|
-----------------------------|--------------------------|
-----------------------------|--------------------------|
-----10-----8S--7--7S--6--6--|--7--------7--------7-----|
--0---8--0--6S--5--5S--4--4--|-----7--------6--------5--|



-------------------------|--------------------------|
-------------------------|--------------------------|
-------------------------|--------------------------|
-------------------------|--------------------------|
-----7----------------5--|--7--------7--------7-----|
--L-----6----5--6--7-----|-----7--------6--------5--|



-------------------------|--------------------------|
-------------------------|--------------------------|
-------------------------|--------------------------|
-------------------------|--------------------------|
-----7----------------5--|--7--------7--------7-----|
--L-----6----5--6--7-----|-----7--------6--------5--|



-------------------------|--------------------||
-------------------------|--------------------||
-------------------------|--------------------||
-------------------------|--2-----------------||
-----7----------------5--|--2-----------------||
--L-----6----5--6--7-----|--0-----------------||



-------------------|---------------10--8--|--L--------/10--------|
-------------------|---------------10--8--|--L--------/10--------|
-------------------|----------------------|----------------------|
-------------------|----------------------|----------------------|
-------------------|----------------------|----------------------|
-------------------|----------------------|----------------------|



--11--------13--------|--16--------17--------|
--11--------13--------|--15--------16--------|
----------------------|----------------------|
----------------------|----------------------|
----------------------|----------------------|
----------------------|----------------------|



--21b~--L--------L--L--\17--|--23p----17h--22p----17h--23~----|
----------------------------|---------------------------------|
----------------------------|---------------------------------|
----------------------------|---------------------------------|
----------------------------|---------------------------------|
----------------------------|---------------------------------|



--17h--22p----17h--20p----17p--15~--|--17br----L----L---------------|
------------------------------------|--------------------16--17br~--|
------------------------------------|-------------------------------|
------------------------------------|-------------------------------|
------------------------------------|-------------------------------|
------------------------------------|-------------------------------|



---------------------|--12h-15p-12--12--12--13b---L--12h-15p-12--|
--L--------17--------|-------------------------------------------|
---------------------|-------------------------------------------|
---------------------|-------------------------------------------|
---------------------|-------------------------------------------|
---------------------|-------------------------------------------|



--12--12--13b--L--12h-15p-12--12--12--|--12b~----L--------8--12--8--|
--------------------------------------|-----------------------------|
--------------------------------------|-----------------------------|
--------------------------------------|-----------------------------|
--------------------------------------|-----------------------------|
--------------------------------------|-----------------------------|



-------------------------21p-17-|
--10~--------L--(10)\-----------|
--------------------------------|
--------------------------------|
--------------------------------|
--------------------------------|



--L-15-17p-15------19--15-13-15-13-----17-|
---------------17------------------17-----|
------------------------------------------|
------------------------------------------|
------------------------------------------|
------------------------------------------|



--L-13-12h-13p-12h-13-15p---11p-10h-11p-10---------|
-------------------------------------------13-16h--|
---------------------------------------------------|
---------------------------------------------------|
---------------------------------------------------|
---------------------------------------------------|



--------------------------------------|---------------------------|
--15p-13------------------------------|-------<>4--------L--5s-12-|
---------14h-16p-14----16--14~--------|--L------------------------|
--------------------17----------------|---------------------------|
--------------------------------------|---------------------------|
--------------------------------------|---------------------------|



---------------------------------------|
--(12)s----5--------------------12s-19-|
--------------9s--12--(12)s--9---------|
---------------------------------------|
---------------------------------------|
---------------------------------------|



------------------------------------|---------------------|
--(19)------19--(19)--12------------|---------------------|
----------------------------<>5br~--|--L--L------L--------|
------------------------------------|---------------------|
------------------------------------|---------------------|
------------------------------------|---------------------|



-------------------------------|
--L-(5)b~--L--------L---12s-19-|
--L----------------------------|
-------------------------------|
-------------------------------|
-------------------------------|



-----------------------------------15s-20-|
--(19)s--12\----/19--(19)s--12\-----------|
------------------------------------------|
------------------------------------------|
------------------------------------------|
------------------------------------------|



--(20)s----11--15s-20-(20)s---11----------|---------------------|
-----------------------------------<>3b~--|--L--L--------L------|
------------------------------------------|---------------------|
------------------------------------------|---------------------|
------------------------------------------|---------------------|
------------------------------------------|---------------------|



-----------------------------5----|--L----L----7---L----L----8---|
--L-<>(3)b--L----L----<>(3)--8b---|--L----L---10b--L----L---11b--|
----------------------------------|------------------------------|
----------------------------------|------------------------------|
----------------------------------|------------------------------|
----------------------------------|------------------------------|



--L----L---10---L----L----7---|--L----L----8---L----L---10---|
--L----L---13b--L----L---10b--|--L----L---11b--L----L---13b--|
------------------------------|------------------------------|
------------------------------|------------------------------|
------------------------------|------------------------------|
------------------------------|------------------------------|



--L----L---11---L------L--|--L------------------|-------------------|
--L----L---14b--L------L--|--L------------------|-------------------|
--------------------------|---------------------|-------------------|
--------------------------|---------------------|-------------------|
--------------------------|---------------------|-------------------|
--------------------------|---------------------|-------------------|



-------------------|--------------------------|
-------------------|--------------------------|
-------------------|--9--------9--------9-----|
-------------------|-----9--------8--------7--|
-------------------|--------------------------|
-------------------|--------------------------|



-------------------------|--------------------||
-------------------------|--------------------||
-----9----------------7--|--9-----------------||
--L-----8----7--8--9-----|--9-----------------||
-------------------------|--7-----------------||
-------------------------|--------------------||

Texto Colunas
Alterar tom ½ tom ½ tom
afinação acordes na letra esconder tabs mais »
1.272 exibições

Comentários 1

  • igor igor: Postado em 18/04/2013 16:49

    nice

Composição: Pantera
Esse não é o compositor? Avise-nos.
Contribuição: Jason
  1. Domingo de Manhã - Marcos e Belutti Manteve-se 86.050 exibições
  2. Até Você Voltar - Henrique e Juliano Manteve-se 71.801 exibições
  3. Cuida Bem Dela - Henrique e Juliano Manteve-se 56.290 exibições
  4. Diz Pra Mim - Malta Manteve-se 48.760 exibições
  5. All Of Me - John Legend Manteve-se 48.574 exibições
  6. Raridade - Anderson Freire Manteve-se 39.944 exibições
  7. Nocaute - Jorge e Mateus Manteve-se 36.834 exibições
  8. Recaídas - Henrique e Juliano Manteve-se 32.803 exibições
  9. Rude - Magic! Manteve-se 30.618 exibições
  10. Só Os Loucos Sabem - Charlie Brown Jr. Manteve-se 30.429 exibições
  1. Henrique e Juliano- Manteve-se 243.958 exibições
  2. Jorge e Mateus- Manteve-se 235.772 exibições
  3. Legião Urbana- Manteve-se 182.782 exibições
  4. Charlie Brown Jr.- Manteve-se 159.997 exibições
  5. Bruno e Marrone- Manteve-se 112.759 exibições
  6. Fernandinho- Manteve-se 107.982 exibições
  7. Marcos e Belutti- Manteve-se 101.543 exibições
  8. Luan Santana- Manteve-se 92.083 exibições
  9. Malta- Manteve-se 80.903 exibições
  10. Victor e Leo- Manteve-se 80.858 exibições
Exibir acordes »

Cifras e tabs

Fórum Cifra Club

Aprenda

Cifra Club News

Mais Serviços Cifra Club ID

Studio Sol

©1996 - 2014 Cifra Club · o primeiro, maior e mais acessado do Brasil · 342 mil músicas · 6.4 milhões pessoas cadastradas

publicidade
fechar