Parabéns Pra Você

Parabéns Pra Você

2.438 exibições
G|---------------------------
D|--12h14-14-14h16-14-19-18--
A|---------------------------
E|--------------------------- 
Parabéns pra você..

G|-----------------16-14-14--
D|--12h14-14-14h16-----------
A|---------------------------
E|---------------------------
Nesta data querida..

G|------21-21--18-18--14-14--13-11--
D|--/14-19-19--16-16--12-12--11-12--
A|----------------------------------
E|----------------------------------
Muitas felicidades..

G|--16h17-17-16--12-12h14-12-12--
D|-------------------------------
A|-------------------------------
E|-------------------------------
Muitos anos de vida.
    Composição: Bertha CelesteColaboração e revisão:
    • calebeowsiany

    Comentários 0

    140 .
    140 cancelar

    conseguiu tocar?

    covers

    Grave um vídeo tocando Parabéns Pra Você e mande pra gente!

    Ex.: http://www.youtube.com/watch?v=0IvSvIwGdwk
    ver covers de outras músicas »
    0:00 / 0:00

    Capítulos

      1 versão de baixo exibições contribuição e correção
      1 versão de gaita exibições contribuição e correção
      1 versão de Guitar Proformatodownloadscontribuição
      play/pausefechar subir/descer velocidade
      6ª corda E5ª corda A4ª corda D3ª corda G2ª corda B1ª corda E
        acordes
        publicidad
        fechar
        ok