Ikke En Chance

Paragraf 119

Sem foto do Paragraf 119
			     Ikke en chance - § 119

Tabbed By : AkoA
e-mail: *

Tuning:E,A,D,G

G|----------------------------------------------------------------------|
D|----------------------------------------------------------------------|
A|----------------------------------------------------------------------|
E|-0-0-0-0-0-0-0-0-1~------5-5-5-5-5-5-5-5-5-5-5-5-5-5-5-5-5------------|

G|----------------------------------9-------------|  -------------------|
D|-7-10-7----10-7---10-7----10-7-9-9--7-7-9-10-9--|x2-7~--7-5-2~--5~----|x2
A|--7-------7------7-------7------7----7----------|  -------------------|
E|------------------------------------------------|  -------------------|

 pre-verse 
G|----------------------------------------------------------------------|
D|----------------------------------------------------------------------|
A|-----------------------------------------------7--5-------------------|
E|-5-5-5-5---------5-5-5-5-------5-5-5-5------8--------7----------------|

 verse
G|----------------------------------------------------------------------|
D|----------------------------------------------------------------------|
A|----------------------------------------------------77775555----------|
E|-555555556666666655555555666666665555555566666668888--------7777------|
98 exibições

Comentários 0

Consegui tocarAinda não conseguiram tocar essa música. Seja o primeiro!
    Não consegui tocar
    publicidade
    fechar