Paramore

Ignorance

149.233 exibições
Tom: A
Intro 2x:


E|----------------------------------------------------------|
B|----------------------------------------------------------|
G|--77-7-7-7---7-7---7--7--7----77-7-7-7---7-7---7--7--7----|
D|--99-9-9-9---7-7---7--7--7----99-9-9-9---7-7---7--7--7----|
A|--99-9-9-9---9-9---9--9--9----99-9-9-9---9-9---9--9--9----|
E|--77-7-7-7---1010--10-10-10---77-7-7-7---1010--10-10-10---|


E|--33-3-3-3-----------------33-3-3-3-----------------|
B|--33-3-3-3-----------------33-3-3-3-----------------|
G|--44-4-4-4---77---7-7-7----44-4-4-4-----------------|
D|--55-5-5-5---77---7-7-7----55-5-5-5-----------------|
A|--55-5-5-5---99---9-9-9----55-5-5-5---5-5-4-4-------|
E|--33-3-3-3---1010--101010--33-3-3-3-----------5-2---|


Verse:

E|-------------------------------------------------------------------------|
B|-------------------------------------------------------------------------|
G|-------------------------------------------------------------------------|
D|--------9-------9-------9-------9-------9-------9-------9-------9--------|
A|------9-------9-------9-------9-------9-------9-------9-------9----------|
E|--7-7-----7-7-----7-7-----7-7-----7-7-----7-7-----7-7-----7-7------------|


E|-------------------------------------------------------------------------|
B|-------------------------------------------------------------------------|
G|------------------------------------------------------4-------4-------4--|
D|----------12---------12---------12---------12-------5-------5-------5----|
A|--------9----------9----------9----------9-------------------------------|
E|--10-10------10-10------10-10------10-10--------3-3-----3-3-----3-3------|


E|-----------0-(x16)--3-(x16)----------------------3-----------------------|
B|-----------0-(x16)--3-(x16)----------------------3-----------------------|
G|--7-(x24)--0-(x16)--4-(x16)----------------------4-----------------------|
D|--9-(x24)--2-(x16)--5-(x16)------2-2-x-x-x-2-2-2-5-----------------------|
A|--9-(x24)--2-(x16)--5-(x16)------2-2-x-x-x-2-2-2-5-----------------------|
E|--7-(x24)--0-(x16)--3-(x16)------0-0-x-x-x-0-0-0-3-----------------------|


Refrão 2x:

E|----------------------------------------------------------|
B|----------------------------------------------------------|
G|--77-7-7-7---7-7---7--7--7----77-7-7-7---7-7---7--7--7----|
D|--99-9-9-9---7-7---7--7--7----99-9-9-9---7-7---7--7--7----|
A|--99-9-9-9---9-9---9--9--9----99-9-9-9---9-9---9--9--9----|
D|--77-7-7-7---1010--10-10-10---77-7-7-7---1010--10-10-10---|


E|--33-3-3-3-----------------33-3-3-3-----------------|
B|--33-3-3-3-----------------33-3-3-3-----------------|
G|--44-4-4-4---77---7-7-7----44-4-4-4-----------------|
D|--55-5-5-5---77---7-7-7----55-5-5-5-----------------|
A|--55-5-5-5---99---9-9-9----55-5-5-5---5-5-4-4-------|
E|--33-3-3-3---1010--101010--33-3-3-3-----------5-2---|


Interludio:

E|---------------------------------------------------------------------|
B|---------------------------------------------------------------------|
G|-----------------------------------------------2-2p0-----------------|
D|------/9-9----------/9-9----------/9-9---------------4---------------|
A|--2-2-----9-9---2-2-------9-9----------9-9---------------------------|
E|------------------------------0-0----------3-3-----------------------|


Verso:

E|-------------------------------------------------------------------------|
B|-------------------------------------------------------------------------|
G|-------------------------------------------------------------------------|
D|--------9-------9-------9-------9-------9-------9-------9-------9--------|
A|------9-------9-------9-------9-------9-------9-------9-------9----------|
E|--7-7-----7-7-----7-7-----7-7-----7-7-----7-7-----7-7-----7-7------------|


E|-------------------------------------------------------------------------|
B|-------------------------------------------------------------------------|
G|------------------------------------------------------4-------4-------4--|
D|----------12---------12---------12---------12-------5-------5-------5----|
A|--------9----------9----------9----------9-------------------------------|
E|--10-10------10-10------10-10------10-10--------3-3-----3-3-----3-3------|


E|-----------0-(x16)--3-(x16)----------------------3-----------------------|
B|-----------0-(x16)--3-(x16)----------------------3-----------------------|
G|--7-(x24)--0-(x16)--4-(x16)----------------------4-----------------------|
D|--9-(x24)--2-(x16)--5-(x16)------2-2-x-x-x-2-2-2-5-----------------------|
A|--9-(x24)--2-(x16)--5-(x16)------2-2-x-x-x-2-2-2-5-----------------------|
E|--7-(x24)--0-(x16)--3-(x16)------0-0-x-x-x-0-0-0-3-----------------------|


Refrão 2x:

E|----------------------------------------------------------|
B|----------------------------------------------------------|
G|--77-7-7-7---7-7---7--7--7----77-7-7-7---7-7---7--7--7----|
D|--99-9-9-9---7-7---7--7--7----99-9-9-9---7-7---7--7--7----|
A|--99-9-9-9---9-9---9--9--9----99-9-9-9---9-9---9--9--9----|
D|--77-7-7-7---1010--10-10-10---77-7-7-7---1010--10-10-10---|


E|--33-3-3-3-----------------33-3-3-3-----------------|
B|--33-3-3-3-----------------33-3-3-3-----------------|
G|--44-4-4-4---77---7-7-7----44-4-4-4-----------------|
D|--55-5-5-5---77---7-7-7----55-5-5-5-----------------|
A|--55-5-5-5---99---9-9-9----55-5-5-5---5-5-4-4-------|
E|--33-3-3-3---1010--101010--33-3-3-3-----------5-2---|


Solo:

E|-------------------------------------------------------------------------|
B|------------------------------------------------------------------10(x8)-|
G|-----------------------------------------------------9(x4)-11(x8)--------|
D|-12(x8)-11(x4)-9(x4)--------------------12(x8)-11(x4)--------------------|
A|---------------------9(x8)-10(x4)-9(x4)----------------------------------|
E|-------------------------------------------------------------------------|


Refrão 2x:

E|----------------------------------------------------------|
B|----------------------------------------------------------|
G|--77-7-7-7---7-7---7--7--7----77-7-7-7---7-7---7--7--7----|
D|--99-9-9-9---7-7---7--7--7----99-9-9-9---7-7---7--7--7----|
A|--99-9-9-9---9-9---9--9--9----99-9-9-9---9-9---9--9--9----|
D|--77-7-7-7---1010--10-10-10---77-7-7-7---1010--10-10-10---|


E|--33-3-3-3-----------------33-3-3-3-----------------|
B|--33-3-3-3-----------------33-3-3-3-----------------|
G|--44-4-4-4---77---7-7-7----44-4-4-4-----------------|
D|--55-5-5-5---77---7-7-7----55-5-5-5-----------------|
A|--55-5-5-5---99---9-9-9----55-5-5-5---5-5-4-4-------|
E|--33-3-3-3---1010--101010--33-3-3-3-----------5-2---|
    Composição: Hayley Williams / Josh FarroColaboração e revisão:
    • kevin.fernando.10
    • Jerffeson
    • L.Casagrande
    • xande
    • lizpinkrock
    • +1

    Comentários 9

    • mailson mailson: Postado em 29/12/2014 17:13

      Alguém , por favor, corrige essa tablatura? Uma parte está correta, o resto eu não sei. Parece que o resto está todo errado.

    • Bruno Bruno: Postado em 18/04/2014 16:55

      Video aula por favor!!!

    • Jerffeson Jerffeson: Postado em 13/12/2013 16:43

      Vídeo aula por favor, música muito boa.
      No youtube tem a sua versão acústica: mtv unplugged - paramore full hd.

    • caarolg caarolg: Postado em 18/08/2013 20:25

      se fosse sertanejo teria vídeo aula....

      • laís laís: Postado em 25/08/2013 02:21

        Senhora resposta..
        Verdade viu

    • Lucas Lucas: Postado em 30/06/2013 12:21

      ta meio complicada essa tablatura

    • tales_egea tales_egea: Postado em 04/07/2012 13:24

      mto boa musica fica mto bom com distorção pesada...

    • bryaanrawr bryaanrawr: Postado em 14/04/2012 16:02

      muito daora de tocar. :3

    • winchester08 winchester08: Postado em 16/12/2011 01:25

      show

    conseguiu tocar?

    • Rosane
    • Junior
    • guzao.opalmeirense.5
    • Dandara
    • jerffeson.dossantos.5
    • Brennda
    • luid223
    • •••
    0:00 / 0:00

    Capítulos

      1 versão de baixoexibiçõescontribuição e correção
      1 versão de partiturasformatodownloadscontribuição
      play/pausefechar subir/descer velocidade
      6ª corda E5ª corda A4ª corda D3ª corda G2ª corda B1ª corda E
        acordes
        publicidad
        fechar
        ok