Nunca Diga

Pato Fu

 Pato Fu
Tom: A
		
    A          C#
QUERIDO NUNCA DIGA
                  F#m  D 
QUE EU TENHO MAL GOSTO
   A                   C# 
E SAIBA QUE O BELO DA VIDA 
                   D   E
AINDA ESTÁ PRA NASCER
    A          C# 
QUERIDO POR FAVOR
                 F#m  D
OLHE BEM EM MEU ROSTO
   A                      E 
E TENTE ENXERGAR O QUE OS OUTROS
               A
NÃO CONSEGUEM VER  

Bm             E
  FUI LHE MOSTRAR
                     A 
UM DISCO QUE EU COMPREI
          C#
DE UM CANTOR
                  D 
QUE EU SEMPRE GOSTEI
       Bm
MAS VOCÊ
                E
NÃO ME DEU ATENÇÃO
Bm                E
  E VOLTAREI PRA CASA
              A
PELO MESMO CAMINHO
       C#                D
ESCUTAREI O MEU DISCO SOZINHA
                Bm
DENTRO DO MEU QUARTO
          G  E
NA ESCURIDÃO

A          C# 
QUERIDO POR FAVOR
                 F#m  D
OLHE BEM EM MEU ROSTO
   A                      E 
E TENTE ENXERGAR O QUE OS OUTROS
               A
NÃO CONSEGUEM VER  
                           E 
E TENTE ENXERGAR O QUE OS OUTROS
               Dm  A
NÃO CONSEGUEM VER  


Solo:


   A            C#m           F#m         D
e|------------|-------------|-----------|--------------|
B|-5----------|-6---------6-|-7--5------|--------------|
G|----6-----6-|----6-----6--|-------7-6-|-7--6--4--6-7-|
D|-------7----|-------7-----|-----------|--------------|
A|------------|-------------|-----------|--------------|
E|------------|-------------|-----------|--------------|



   A            C#m           D             E
e|------------|-------------|-------------|-------------|
B|-5----------|-6---------6-|-7-7-7-7-6-7-|-9-9-9-9-7-9-|
G|----6-----6-|----6-----6--|-------------|-------------|
D|-------7----|-------7-----|-------------|-------------|
A|------------|-------------|-------------|-------------|
E|------------|-------------|-------------|-------------|



   A               C#m                 F#m         D
e|----10---9--10-|-12--10---9--10-10-|-7--7--5-7-|-5--5--7-5-|
B|----10--10--10-|-12--10--10--10-10-|-7--7--7-7-|-7--7--7-7-|
G|---------------|-------------------|-----------|-----------|
D|---------------|-------------------|-----------|-----------|
A|---------------|-------------------|-----------|-----------|
E|---------------|-------------------|-----------|-----------|



   A            E                A             A
e|-5--4-----4-|-5-5--4-----4-4-|-5-5-4-4-----|-----------|
B|-------5----|---------5------|---------5-7-|-5~~~~~~~~-|
G|------------|----------------|-------------|-----------|
D|------------|----------------|-------------|-----------|
A|------------|----------------|-------------|-----------|
E|------------|----------------|-------------|-----------|
15.810 exibições

Comentários 0

Composição: Frank Jorge
Esse não é o compositor? Avise-nos.
Contribuição: A. Tashiro
Consegui tocarAinda não conseguiram tocar essa música. Seja o primeiro!
    Não consegui tocar
    Exibir acordes »
    publicidade
    fechar