Um Ser Amor

Paula Fernandes

 Paula Fernandes
Tom: F(acordes na forma do tom E)
Capotraste na 1ª casa		
Intro 2x: E B4 C#m7 A5(9)

Solo Intro:

Parte 1

E|----------------------------------------------------|
B|----------------------------------------------------|
G|----------5-7------5h7--5h7p5-----------------------|
D|-5/7-5/7------7\5--5h7--5h7p5\3---------------------|
A|--------------------------------3h5~----------------|
E|----------------------------------------------------|


Parte 2

E|----------------------------------------------------|
B|----------------------------------------------------|
G|---5-3----------------------------------------------|
D|-3--------3---5/6\5p3-------------------------------|
A|--------5---5---------------------------------------|
E|----------------------------------------------------|


Parte 3

E|----------------------------------------------------|
B|---------------------6------------------------------|
G|----------5-7------ -5h7--5h7p5----5-------5-3------|
D|-5/7-5/7------5/7\5-------5h7p5\3--5h7---3----------|
A|----------------------------------------------------|
E|----------------------------------------------------|


Primeira Parte:
   E
Você veio inteiro
   B4
Veio como o dia
    C#m7
Livre como o vento
   E5/B
Numa tarde fria
    E5/A
Com o olhar brilhante
     E/G#
Brilho de diamante
    E5/A          B4
Um coração quente

Segunda Parte:
    Bbº
Feito um vendaval em mim
           B4
Varreu as nuvens
          E
Da minha solidão
  B11/D#
E eu
     C#m7
Me apaixonei perdidamente por você
  E5/A
Agora sou
     E/G#
Bem mais que sei
    E5/A    B4
Um ser amor

Refrão:
  E      B4
Amar alguém
   C#m7                  A5(9)
É viajar pra terra onde ninguém vai
  E      B4
Amar alguém
      C#m7
É deixar fluir os sentimentos
     A5(9)           E
Ser      capaz de amar
  B11/D#     C#m7  A5(9) E
Amar simplesmente

( E B11/D# C#m7 A5(9) )

Repete a Primeira Parte:
   E
Você veio inteiro
   B4
Veio como o dia
    C#m7
Livre como o vento
   E5/B
Numa tarde fria
    E5/A
Com o olhar brilhante
     E/G#
Brilho de diamante
    E5/A          B4
Um coração quente

Repete a Segunda Parte:
    Bbº
Feito um vendaval em mim
           B4
Varreu as nuvens
          E
Da minha solidão
  B11/D#
E eu
     C#m7
Me apaixonei perdidamente por você
  E5/A
Agora sou
     E/G#
Bem mais que sei
    E5/A    B4
Um ser amor

Refrão Final:
  E      B4
Amar alguém
   C#m7                  A5(9)
É viajar pra terra onde ninguém vai
  E      B4
Amar alguém
      C#m7
É deixar fluir os sentimentos
    A5(9)
Ser      capaz de

  E      B4
Amar alguém
   C#m7                  A5(9)
É viajar pra terra onde ninguém vai
  E      B4
Amar alguém
      C#m7
É deixar fluir os sentimentos
    A5(9)           E
Ser      capaz de amar
  B11/D#     C#m7  A5(9) E
Amar simplesmente
Texto Colunas
Alterar tom ½ tom ½ tom
afinação acordes na letra esconder tabs mais »
502 Bad Gateway

502 Bad Gateway


nginx
Composição: James B. Cobb / Tony Powers
Esse não é o compositor? Avise-nos.
Contribuição: Rubia Correções: gustavofofao e mais 1 »
502 Bad Gateway

502 Bad Gateway


nginx
Exibir acordes »
502 Bad Gateway

502 Bad Gateway


nginx
publicidade
fechar