O Meu Querer

Paulo César Baruk

 Paulo César Baruk
Tom: C
		
 Intro: C9  G6/B  A4(7) A4  Am5+  C9  G6/B  A4(7)


C9               G6/B          A4(7)       A4  Am5+
Cada vez que eu abrir a minha boca
C9               G6/B               A4(7)       A4   Am5+
Cada vez que eu olhar na direção de alguém
Dm7/A                  G#°          Am7   Am7/G      F#º
Cada vez que, passo a passo, eu chegar em algum lugar
C/G             G4         G      C9                C4(6)
Seja a tua voz, sejam teus olhos, sejam os teus pés

C9                G6/B               A4(7)    A4  Am5+
Cada vez que eu tocar num rosto em pranto
C9               G6/B            A4(7)       A4   Am5+
Cada vez que eu fizer o que já não se faz
Dm7/A            G#°          Am7   Am7/G      F#º
Cada vez que, em silêncio, eu doar a outra face
C/G              G4      G           C9
Sejam tuas mãos, seja tua graça e o teu amor

(Refrão)

C9            G/B       Am7       F
Eu quero te servir, eu quero te obedecer
C9           G/B         C/E          F
Viver tua vontade, refletir tua verdade
C9                  G/B      Am7       F
Te honrar com minha vida, em tudo te adorar
C9       G/B       C/E    F
Mestre, amigo, amado Jesus
         C9
Esse é o meu querer

Intro 2x: C9  G6/B  A4(7) A4  Am5+

C9               G6/B          A4(7)      A4  Am5+
Cada vez que eu tocar num ombro amigo
C9               G6/B              A4(7)      A4   Am5+
Cada vez que eu fizer o que já não se faz
Dm7/A            G#°          Am7   Am7/G      F#º
Cada vez que, em silêncio, eu doar a outra face
C/G              G4      G           C9
serei tuas mãos, venha tua graça e o teu amor

(Refrão)



TABLATURA DOS DEDILHADOS(introdução e estrofes)



E|------------------0----------------0------------------0--------------------|
B|------------3-----------------3------------------3----------------3--------|
G|--------0------0-----------0-----0------------0-----0----------5--------5--|
D|------------------------------------------------------------3-------3------|
A|---3-------------------2------------------0--------------------------------|
E|---------------------------------------------------------------------------|



E|----------------0-------------------0-----------------0-----|
B|----------3-------------------3------------------3----------|
G|-------0-----0-------------0-----0------------0-----0-------|
D|------------------------------------------------------------|
A|---3-------------------2------------------0-----------------|
E|------------------------------------------------------------|


CADA VEZ QUE EU ABRIR A MINHA BOCA

E|------------------0----------------0------------------0--------------------|
B|------------3-----------------3------------------3----------------3--------|
G|--------0------0-----------0-----0------------0-----0----------5--------5--|
D|------------------------------------------------------------3-------3------|
A|---3-------------------2------------------0--------------------------------|
E|---------------------------------------------------------------------------|



CADA VEZ QUE EU FIZER O QUE JÁ NÃO SE FAZ


E|----------------0-------------------0-----------------0-----|
B|----------3-------------------3------------------3----------|
G|-------0-----0-------------0-----0------------0-----0-------|
D|------------------------------------------------------------|
A|---3-------------------2------------------0-----------------|
E|------------------------------------------------------------|



CADA VEZ QUE            PASSO A PASSO    EU CHEGAR EM ALGUM    LUGAR


E|------------------0----------------0---------------------------0--------|
B|------------3-----------------3-----------------1---------1----1--------|
G|--------2------2-----------1-----1------------0---------0------2--------|
D|---3------------------2---------------------2---------2--------1--------|
A|----------------------------------------0----------3--------------------|
E|---------------------------------------------------------------2--------|


SEJA TUA VOZ, SEJAM TEUS OLHOS, SEJAM TEUS PÉS


E|------------------0-------------------------------------------------|
B|------------1----------------------1---------------1---------1------|
G|--------0------0--------------2-----------------0---------0---------|
D|---------------------------3-----------------2-------2-3------------|
A|----------------------------------------3---------------------------|
E|---3-----------------3----------------------------------------------|


Segunda estrofe repete igual a primeira
121.326 exibições

Comentários 4

  • Thiago Thiago: Postado em 06/11/2014 19:40

    A música é boa, mas a cifra ta ruim!

  • J. J.: Postado em 01/02/2013 10:39

    Muita unção, belíssima música!

  • balsaneli1 balsaneli1: Postado em 16/12/2012 11:19

    tem como tocar no youtube !

  • lucas.benjamim lucas.benjamim: Postado em 19/03/2012 16:55

    Boa as Cifras mais poderia ter Tablaturas para Gaita de Boca desta música também. Eu particular-mente Gostaria muito.

Composição: Paulo César Baruk
Esse não é o compositor? Avise-nos.
Contribuição: kduborsatti Correções: israel , danielcalixto e mais 12 »
Exibir acordes »
publicidade
fechar