Daughter

Pearl Jam

 Pearl Jam
Tom: G
		
Versão 1
-======-
INTRO E PARTE I


E|----------------
B|-3--3--3--3-3-3-
G|-0--4--2--4-4-4-
D|-0--0--0--0-0-0-
A|----------------
E|-3--3-----3-3-3-



E|-----------------
B|-3--3--3--3--3-3-
G|-0--4--2--0--0-0-
D|-0--0--0--0--0-0-
A|-----------------
E|-3--3-----3--3-3-



E|---------------------------------------
B|-3--3--3--3--3-3-----3--3-3--3-3--3-3--
G|-0--4--2--0--0-0-----2--2-2--2-2--2-2--
D|-0--0--0--0--0-0-----0--0-0--0-0--0-0--
A|---------------------------------------
E|-3--3-----3--3-3-----3--3-3--3-3--3-3--


Alone, listless. Breakfast table in an otherwise empty room.
Young girl, violence. Center of her own attention.
The mother reads aloud, child tries to understand it.
Tries to make her proud.
...

Em7	Em6	Em7	Em6
The shades go down.... It's in her head.
		Em7	Em6		Em7	Em6
Painted room. Can't deny there's something wrong.


Repete INTRO E PARTE I

Don't call me daughter. Not fit to.
The picture kept will remind me.
Don't call me daughter. Not fit to.
The picture kept will remind me.
Don't call me...

(Em7  Em6  Em7  Em6  Em7  Em6  Em7  Em6  G  G4)

Em7	Em6	  Em7	    Em6	Em7	Em6
She holds the hand that holds her down.
Em7	Em6
She will rise above.

Ooh... Oh.

Base do Solo e final da música (Intro e Parte I)
__________________________________________________________________

Versão 2
-======-

From: Paul D

Okay, I'm not sure if Daughter has been tabbed correctly here, tuning and
all.  And I've seen requests for it in the past few weeks.  I got the
tuning from an interview with Stone Gossard in a guitar mag and the tab
from a guy I met at the beach.  I was jamming on the boardwalk in Ocean
City, MD and this guy came up and asked if I wanted to know "Daughter" and
I said sure, so he showed me...
Correct tuning
The tuning is as follows:
Your low E comes up to G.
Your A goes down to the exact same G.
Your D, G, and B strings stay the same.
And your high E goes down to D.

The little intro arpeggio is like this:


D|-----------0-----|
B|---------0---0---|
G|-------0-------0-|  (let ring)
D|-----7-----------|
G|---5-------------|
G|-0---------------|


Then the guitar comes in full force and goes on throughout the verses:

D|-0-0-0-0-|--0--0--0-0-0--|--0--0--0---0-0-0-|-0-0--0--0--0-0-0-|
B|-0-0-0-0-|--0--0--0-0-0--|--0--0--0---0-0-0-|-0-0--0--0--0-0-0-|
G|-0-0-0-0-|--0--0--0-0-0--|--0--0--0---0-0-0-|-0-0--0--0--0-0-0-|
D|-0-0-0-0-|-/9--7\-0-0-0--|--7-/9--7\--0-0-0-|-0-0-/9--7\-0-0-0-|
G|-0-0-0-0-|-/7--5\-0-0-0--|--5-/7--5\--0-0-0-|-0-0-/7--5\-0-0-0-|
G|-0-0-0-0-|--0--0--0-0-0--|--0--0--0---0-0-0-|-0-0--0--0--0-0-0-|



D|-0-0-0-0-0-0-0-0-0-0---0-|
B|-0-0-0-0-0-0-0-0-0-0---0-|
G|-0-0-0-0-0-0-0-0-0-0---0-|
D|-7-7-7-7-7-7-7-7-7-7---0-|
G|-5-5-5-5-5-5-5-5-5-5---0-|
G|-0-0-0-0-0-0-0-0-0-0---0-|




 The following is how you play the Em7 Em6 part ("She holds the hand
D|--0--0--0--0--0----0--0--0--0--0-|           That holds her down...")
B|--0--0--0--0--0----0--0--0--0--0-|
G|--0--0--0--0--0----0--0--0--0--0-|
D|-12-12-12-12-11---12-12-12-12-11-|
G|--9--9--9--9--9----9--9--9--9--9-|
G|--0--0--0--0--0----0--0--0--0--0-|


I'm no lead player ("jus' acoustic, man, jus' acoustic") so look elsewhere
for the solo.  Any and all corrections or augmentations welcome...

Received: from husc7.harvard.edu (husc7.harvard.edu [128.103.25.7])

by post-office.nevada.edu (8.6.4/8.6.4) with SMTP id PAA13327 for ;

 Wed, 9 Feb 1994 15:27:51 -0800

Date: Wed, 9 Feb 94 18:27:49 -0500

Subject: Daughter by Pearl Jam

Newsgroups: alt.guitar.tab
Subject: TAB: "Daughter" by PJ, Here it is!!!
Date: 15 Nov 1993 23:26:31 GMT
Organization: University of Illinois at Urbana
Lines: 83


NNTP-Posting-Host: cesn15.cen.uiuc.edu

Keywords: guitar

             Alright, I finally figured it out, and I am pretty sure
this is accurate.  The trick is to figure out the tuning that Stone
is using.  He plays allthe open strings at the very beginning,
although I just messed around till I gotit.  The tuning is: (drum
roll, please)
        D
        B
        G
        C
        G
        E
	That's with the lowest string (low E) on the bottom folks.
After that, the chords just kind of fall into place:
      G          D(6)      Cadd9  Cadd9


I-----0-----I----0----I----0----I----0----I
I-----0-----I----0----I----1----I---(0)---I
I-----0-----I----4----I----2----I----4----I
I-----2-----I----2----I----0----I----0----I
I-----0-----I----x----I----x----I----x----I
I-----x-----I----x----I----x----I----x----I


Don't    call      me.............Daughter
 During the verses (no pun intended), play the above figure once,
and    then again, substituting the G chord for the Cadd9, (i,e,
the last chord). If you listen VERY closely to the intro, that's
what he's playing.  The chorus figure is just as written above, with
some variations (maybe) but not much. The end of the chorus goes:


I----0----I----0----I----0--------I----0----I
I----1----I----0----I----1--------I----0----I
I----2----I----0----I----2--4---2-I----0----I
I----0----I----2----I----0--------I----2----I
I----x----I----0----I----x--------I----0----I
I----x----I----x----I----x--------I----x----I

 left will     re      mi-   i- ind    me.     Don't call me...


Get it? It should be self-explainatory.

	And now here is the bridge.  I'm pretty sure that this is
easier played with 2 guitars, one in standard tuning, along with the
bass, but I, being the glutton for punishment that I am, have
figured out a way to play it in this tunig.

    Em7  Em6


I----x------I
I----3-(2)--I  middle finger on 3rd, index finger on 2nd.
I----0------I
I----4------I  pinky
I----4------I  ring finger
I----0------I
You can always play the bass line too! :



    E      F# G
I------------2-----I
I---0------2-------I    Bottom 2 strings.


	But you can also just play the 2nd and 3rd strings (B and G).
	The outro is basically the same chords, with the same
bassline, and the weirdly tuned guitar plays this trill thingy:
	     E  F             I----4-(5)---I   C string
	And the normal guitar plays an Em chord up high in the 12
position.  Just barre the 12th fret on the top 3 strings. Or you can
play the Em like this.
 Normal guitar, top 3 strings:
I----7----I
I----8----I
I----9----I

  Also suggested:

[ I--------------------------I ]
[ I--------------------------I ]
[ I--------------------------I ]
[ I---4-5----4-5----4-5------I ]
[ I--------------------------I ]

[ I-0----- 0------0------0-00I ]

	So there you have it.  And if some guitar magazine posts
this song this month (and I'm sure they will) I will be pissed.   I
also figured out a few other songs on this album as well as
everything on the previous one.  And I figured out "SEASONS" for any
alternate tuning buffs out there.   Mail me if you want something,
go ahead use me.

Date: Sun, 23 Jul 1995 11:18:18 -0500
From: Wilson Miner

Subject: (fwd) Tab: Pearl Jam Daughter Solo Newsgroups: alt.guitar.tab
Status: O
X-Status:


E|-----------3-------3-------3--------------------------------------------
B|-3--3h5----3h5---3h5--------3----5--3--0--------------------------------
G|--------------------------------4----4-------------0h3h4h3s2---------0-2
b 4 2 0--------0--2b-0---|
D|-----------------------------------------------------------------------0
h2-----------------0h2---------------|
A|------------------------------------------------------------------------
E|------------------------------------------------------------------------



E|--------------------------------------------------------------|
B|-8--8h10h8------------------------------------------repeat----|
G|----------------7h9h7------7------------------------once|-----|
D|----------------------------9-----9--7--5-------------then----|
A|--------------------------------------------------------------|
E|--------------------------------------------------------------|


bend till feedback

E|---------------------------10------10--12b--10-------------------------- |
B|--8--8h10h8--10/12------12------------------12---10---8----8b----------- |
G|------------------------------------------------------------------------ |
D|------------------------------------------------------------------------ |
A|------------------------------------------------------------------------ |
E|------------------------------------------------------------------------ |


Greets all...This being my first contribution to this site, I hope it's
             correct...:)

             All corrections, comments, etc.. welcome, and invited.

Notation:   ^   Hammer-On (Pull-off)
            ~   Bend
            *   Whammy Bar

Key of G:  (First section easiest w/a 3rd fret 2nd position G chord...)


E|--------3------3------3------3--------------------------------------------
B|---3^5----3^5----3^5----3^5----3^5--3---3---------------------------------
G|--------------------------------------4---4--2^0--2^0-----0**--0---0-2-3--
D|-------------------------------------------------------2------------------
A|--------------------------------------------------------------------------
E|--------------------------------------------------------------------------

 (Not too sure here..Vedder's singing)

E|--------------|-----------------------3--3^7^3----------------------------
B|--------------V---------------------------------5^3-----3^5^3----3^5^3----
G|---4*******-3~4~3^2^0----0^2--0----------------------4---------4--------4-
D|----------------------2---------------------------------------------------
A|--------------------------------------------------------------------------
E|--------------------------------------------------------------------------

										  (let ring)

E|---3--3^7^3----------3---------3--------10-10-------10----10--------------
B|-------------5^3-----3^5^3-----3^5^3----------10~12~~~~12~~~~12~10^8-10^8-
G|------------------4---------4--------4----------------(Hold bend for all--
D|-------------------------------------------------------twelves until end)-
A|--------------------------------------------------------------------------
E|--------------------------------------------------------------------------


Enjoy!
Texto Colunas
Alterar tom ½ tom ½ tom
afinação acordes na letra esconder tabs mais »

Comentários 5

  • matheus.schade matheus.schade: Postado em 03/11/2013 13:00

    fica muito diferente essa versão.tem de colocar a tab da versao completa!

  • Victor Victor: Postado em 08/10/2013 20:22

    Acho que o ritmo da primeira versão é para baixo, para baixo, para cima, para baixo, para baixo e por fim baixo, cima, baixo, cima(pf ráp..

    • Gabriel Gabriel: Postado em 14/10/2013 18:22

      ↓ ↑↑↑ ↓ ↑↑↑ eu uso esse ritmo, porém com acordes diferentes e com a Mizinha afinada em D, corda A afinada em G e mizona afinada em G

  • viniciusmen viniciusmen: Postado em 10/12/2012 19:07

    Qual o ritmo dessa música?

  • nevermind nevermind: Postado em 16/10/2011 11:24

    O solo desta musica é a parte mais complicada de tocar! Legal pra caramba

Composição: Billy Joel / Eddie Vedder / Gloria Estefan / Jeff Ament / Jerry Horton / Matt Morris / Michal Malatny / Mike McCready / Richard Rodgers / Stone Gossard / Tim Linton
Esse não é o compositor? Avise-nos.
Contribuição: wiermann Correções: ozeiassilva17 »
  1. Até Você Voltar - Henrique e Juliano Manteve-se 89.068 exibições
  2. Domingo de Manhã - Marcos e Belutti Manteve-se 75.634 exibições
  3. Cuida Bem Dela - Henrique e Juliano Manteve-se 52.032 exibições
  4. Diz Pra Mim - Banda Malta Manteve-se 44.849 exibições
  5. Raridade - Anderson Freire Manteve-se 42.974 exibições
  6. Recaídas - Henrique e Juliano Manteve-se 40.474 exibições
  7. Só Os Loucos Sabem - Charlie Brown Jr. Manteve-se 30.119 exibições
  8. Pra Você - Onze:20 Manteve-se 29.354 exibições
  9. Rude - Magic! Manteve-se 29.325 exibições
  10. Logo Eu - Jorge e Mateus Manteve-se 26.834 exibições
  1. Henrique e Juliano- Manteve-se 274.241 exibições
  2. Jorge e Mateus- Manteve-se 217.156 exibições
  3. Legião Urbana- Manteve-se 196.040 exibições
  4. Charlie Brown Jr.- Manteve-se 144.678 exibições
  5. Fernandinho- Manteve-se 117.224 exibições
  6. Bruno e Marrone- Manteve-se 114.687 exibições
  7. Luan Santana- Manteve-se 111.929 exibições
  8. Marcos e Belutti- Manteve-se 93.495 exibições
  9. Thalles Roberto- Manteve-se 92.673 exibições
  10. Victor e Leo- Manteve-se 91.876 exibições
Exibir acordes »

Cifras e tabs

Fórum Cifra Club

Aprenda

Cifra Club News

Mais Serviços Cifra Club ID

Studio Sol

©1996 - 2014 Cifra Club · o primeiro, maior e mais acessado do Brasil · 341 mil músicas · 6.3 milhões pessoas cadastradas

publicidade
fechar