Even Flow

Pearl Jam

 Pearl Jam
Tom: G
		
*A mizona é dropada em D.

Riff 1:

(Guitarra 1)

E|---------------------------------------------------
B|---------------------------------------------------
G|---------------------------------------------------
D|---------------------------------------------------
A|------------3p0---3/5------------------------------
D|-\--5/7---0-----0-----0-0--6-5-3-0-----------------



E|---------------------------------------------------
B|---------------------------------------------------
G|---------------------------------------------------
D|---------------------------------------------------
A|-------3p0---3/5-----------------------------------
D|-5/7-0-----0-----0-0--6-5-3-0----------------------



E|---------------------------------------------------
B|---------------------------------------------------
G|---------------------------------------------------
D|---------------------------------------------------
A|-------3p0---3/5--------------5-3------------------
D|-5/7-0-----0-----0-0--6-5-3-0-----6-5-3-0-3-5------


(Guitarra 2)

E|---------------------------------------------------
B|----------5-x-5/7----------------------------------
G|--------x-5-x-5/7----------------------------------
D|----5/7-x---------0-0-6-5-3-0----------------------
A|---------------------------------------------------
D|-13\-----------------------------------------------



E|---------------------------------------------------
B|-------5-x-5/7-7-7---------------------------------
G|-------5-x-5/7-7-7---------------------------------
D|-5/7-x-------------6-5-3-0-------------------------
A|---------------------------------------------------
D|---------------------------------------------------



E|---------------------------------------------------
B|-------5-x-5/7-------------------------------------
G|-----x-5-x-5/7-------------7-5---------------------
D|-5/7-x---------0-0-6-5-3-0-----6-5-3-0-3-5-0-------
A|---------------------------------------------------
D|---------------------------------------------------


Primeira Parte:
Freezin', rests his head on a pillow made of concrete, again
Oh, Feelin' maybe he'll see a little better set a
days, ooh yeah
Oh, hand out, faces that he sees time again ain't that
familiar, ooh yeah
Oh, dark grin, he can't help, when he's happy looks
insane, oh yeah
Riff 2:

(Guitarra 1)

E|---------------------------------------------------
B|---------------------------------------------------
G|---------------------------------------------------
D|---------------------------------------------------
A|-----3p0---3/5-------------------------------------
D|-0-0-----0------0--0-/7--0-0-----------------------



E|---------------------------------------------------
B|---------------------------------------------------
G|---------------------------------------------------
D|---------------------------------------------------
A|------3p0---3/5----------------5-3-----------------
D|-/7-0-----0------0--0-5/7-0--0------6-5-3-0-3-5----


(Riff 1 - 2x)


E|---------------------------------------------------
B|---------------------------------------------------
G|---------------------------------------------------
D|---------------------------------------------------
A|-----3p0---3/5-------------5-3---------------------
D|-5/7-----0-----0-0-6-5-3-0-----6-5-3-0-3-5-0-------



E|---------------------------------------------------
B|---------------------------------------------------
G|---------------------------------------------------
D|---------------------------------------------------
A3p0---3/5------------------------------------------
D|----0----------------------------------------------


(Guitarra 2)

E|---------------------------------------------------
B|----5-x-5/7---------------5-x-5/7------------------
G|----5-x-5/7---------------5-x-5/7------------------
D|-/7---------0-0-/7-0-0-/7-----------0-0-/7-0-0-----
A|---------------------------------------------------
D|---------------------------------------------------

      ↑ ↓ ↓                 ↑ ↓ ↓

E|---------------------------------------------------
B|---5-x-5/7-----------------------------------------
G|---5-x-5/7-----------------------------------------
D|7-------------------------------------------------
A|---------------------------------------------------
D|---------------------------------------------------

     ↑ ↓ ↓

E|---------------------------------------------------
B|-x-x-x-x------5-x-5/7-----x-x-x-x------------------
G|-x-x-x-x------5-x-5/7-----x-x-x-x------------------
D|-x-x-x-x---/7---x---------x-x-x-x------------------
A|---------------------------------------------------
D|---------------------------------------------------

   ↓ ↑ ↓ ↑      ↑ ↓ ↓       ↓ ↑ ↓ ↑

E|---------------------------------------------------
B|----5-x-5/7---------------5-x-5/7------------------
G|----5-x-5/7---------------5-x-5/7------------------
D|-/7---------0-0-/7-0-0-/7-----------0-0-/7-0-0-----
A|---------------------------------------------------
D|---------------------------------------------------

      ↑ ↓ ↓                 ↑ ↓ ↓

E|---------------------------------------------------
B|---------------------------------------------------
G|---5-x-5/7--7-5------------------------------------
D|---5-x-5/7-----6-5-3-0-3-5-0-----------------------
A|7-------------------------------------------------
D|---------------------------------------------------

     ↑ ↓ ↓

E|---------------------------------------------------
B|-----x-5-x-5/7-------------------------------------
G|-----x-5-x-5/7-------------------------------------
D|-/7------------7-0--5b6r5------5b7-----------------
A|---------------------------8-5---------------------
D|---------------------------------------------------



E|---------------------------------------------------
B|------5-x-5/7-7-7----------------------------------
G|------5-x-5/7-7-7----------------------------------
D|------------------5b6r5-----5b7--------------------
A|------------------------8-5------------------------
D|---------------------------------------------------



E|---------------------------------------------------
B|------5-x-5/7--7-7---------------------------------
G|------5-x-5/7--7-7------------7-5------------------
D|--------------------5b6r5---------6-5-3-0-3-5-0----
A|--------------------------8-5----------------------
D|---------------------------------------------------


(Riff 1)

Refrão:
D5  C5  Bb5			   D5   C5
Even flow,  thoughts arrive like butterflies
    D5    C5    Bb5                      D5     C5
Oh, he don't know, so he chases them away,

yeah...ooh...
     D5   C5    Bb5                  D5   C5       D5

 C5       D5   C5
Oh, someday yet, he'll begin his life again...life

again...life again...
(Guitarra 2)

E|---------------------------------------------------
B|-7-------------------------7-----------------------
G|-7-7-----------------------7-7---------------------
D|-----10-8~\5/8\5/8\5/8\--------10~\7/10\7/10\7/10\-
A|---------------------------------------------------
D|---------------------------------------------------

(guitarra com alavanca)

E|---------------------------------------------------
B|-7-------------------------7-----------------------
G|-7-7-----------------------7-7---------------------
D|-----10-8~~~~~~~---------------10~~~~~~~~~~--------
A|---------------------------------------------------
D|---------------------------------------------------



E|---------------------------------------------------
B|-7---------------------7-------7-------7-----------
G|-7-7-------9b10r9-7~---7-7-----7-7-----7-7---------
D|-7---10-8~-----------------10~-----10~-----10~-----
A|---------------------------------------------------
D|---------------------------------------------------


(Primeira Parte - com variação na letra:
Kneelin', looking through the paper though he doesn't
know to read, ooh yeah
Oh, prayin', now to something that has never showed
him anything
Oh, feelin', understands the weather of the winters on
its way
Oh, ceilings, few and far between all the legal halls
of shame, yeah...
(Guitarra 2 - Variação)

E|---------------------------------------------------
B|----5-x-5/7---------------5-x-5/7------------------
G|----5-x-5/7---------------5-x-5/7------------------
D|-/7---------0-0-/7-0-0-/7---------0-0-/7-0-0-/7----
A|---------------------------------------------------
D|---------------------------------------------------

      ↑ ↓ ↓                 ↑ ↓ ↓

E|---------------------------------------------------
B|-------------------------------------13b15---------
G|------12b14-10~-12-10~-----12b14-10~---------------
D|-----------------------12~-------------------------
A|---------------------------------------------------
D|---------------------------------------------------



E|---------------------------------------------------
B|----5-x-5/7---------------5-x-5/7------------------
G|----5-x-5/7---------------5-x-5/7------------------
D|-/7---------0-0-/7-0-0-/7--------------------------
A|---------------------------------------------------
D|---------------------------------------------------

      ↑ ↓ ↓                 ↑ ↓ ↓

E|-15b17--15b17r15p13----13b-------------------------
B|--------------------15-----------------------------
G|---------------------------------------------------
D|---------------------------------------------------
A|---------------------------------------------------
D|---------------------------------------------------



E|---------------------------------------------------
B|----5-x-5/7---------------5-x-5/7------------------
G|----5-x-5/7---------------5-x-5/7------------------
D|-/7---------0-0-/7-0-0-/7---------0-0-/7-0-0-/7----
A|---------------------------------------------------
D|---------------------------------------------------

      ↑ ↓ ↓                 ↑ ↓ ↓

E|-------------10------------------------------------
B|----------10----10--13b15--13b15r13b15r13----------
G|----12b14------------------------------------------
D|---------------------------------------------------
A|---------------------------------------------------
D|-/7------------------------------------------------



E|---------------------------------------------------
B|---------------------------------------------------
G|-12b14r12b14r12b14r12p10----10~--------------------
D|-------------------------12------------------------
A|---------------------------------------------------
D|---------------------------------------------------



E|---------------------------------------------------
B|----5-x-5/7---------------5-x-5/7------------------
G|----5-x-5/7---------------5-x-5/7------------------
D|-/7---------0-0-/7-0-0-/7---------0-0--------------
A|---------------------------------------------------
D|---------------------------------------------------

      ↑ ↓ ↓                 ↑ ↓ ↓

E|-------------------------------------10-10---------
B|-------------------10-10-10-13-13-13---------------
G|-10-10-10-12-12-12---------------------------------
D|---------------------------------------------------
A|---------------------------------------------------
D|---------------------------------------------------



E|-13-13--13b15r13-----------------------------------
B|------------------13b15----------------------------
G|---------------------------------------------------
D|---------------------------------------------------
A|---------------------------------------------------
D|---------------------------------------------------


(Guitarra 1 / Guitarra 2)

E|---------------------------------------------------
B|---------------------------------------------------
G|---------------------------------------------------   (2x)
D|---------------------------------------------------
A|------3p0---3/5------------------------------------
D|-/7-0-----0-----0--0-7\-0-0------------------------



E|---------------------------------------------------
B|-------------------------------------13b15---------
G|------12b14-10~-12p10------12b14-10~---------------
D|-----------------------12~-------------------------
A|---------------------------------------------------
D|-/7------------------------------------------------



E|---------------------------------------------------
B|---------------------------------------------------
G|---------------------------------------------------
D|---------------------------------------------------
A|------3p0---3/5------------------------------------
D|-/7-0-----0-----0--0-7\-0-0------------------------



E|---------------------------------------------------
B|---------------------------------------------------
G|---------------------------------------------------
D|---------------------------------------------------
A|------3p0---3/5------------------------------------
D|-/7-0-----0-----0--0-7\----------------------------



E|-15b17--15b17r15p13----13b14-----------------------
B|--------------------15-----------------------------
G|---------------------------------------------------
D|---------------------------------------------------
A|---------------------------------------------------
D|---------------------------------------------------



E|---------------------------------------------------
B|---------------------------------------------------
G|---------------------------------------------------   (2x)
D|---------------------------------------------------
A|------3p0---3/5------------------------------------
D|-/7-0-----0-----0--0-7\-0-0------------------------



E|-------------10------------------------------------
B|----------10----10-13b15--13b15r13b15r13-----------
G|----12b14------------------------------------------
D|---------------------------------------------------
A|---------------------------------------------------
D|-/7------------------------------------------------



E|---------------------------------------------------
B|---------------------------------------------------
G|-12h14p12-12h14p12-12h14p12\10----10~--------------
D|-------------------------------12------------------
A|---------------------------------------------------
D|---------------------------------------------------



E|---------------------------------------------------
B|---------------------------------------------------
G|---------------------------------------------------   (2x)
D|---------------------------------------------------
A|------3p0---3/5------------------------------------
D|-/7-0-----0-----0--0-7\-0-0------------------------



E|---------------------------------------10-10-------
B|---------------------10-10-10-13-13-13-------------
G|---10-10-10-12-12-12-------------------------------
D|---------------------------------------------------
A|---------------------------------------------------
D|---------------------------------------------------



E|-13-13--13b15r13-----------------------------------
B|------------------13b15~---------------------------
G|---------------------------------------------------
D|---------------------------------------------------
A|---------------------------------------------------
D|---------------------------------------------------


Refrão - com variação na letra:
D5     Bb5			    D5  C5
Even flow, thoughts arrive like butterflies
     D5        Bb5                   D5    C5
Oh, he don't know, so he chases them away,

yeah...ooh...
     D5      Bb5                  D5    C5
Oh, someday yet, he'll begin his life again
      D5        C5                          D5    C5
Oh, whispering hands, gently lead, lead him away...
 D5   C5   D5   C5    D5   C5
him away, him away...         yeah!
(Guitarra 1)

E|---------------------------------------------------
B|---------------------------------------------------
G|---------------------------------------------------
D|---------------------------------------------------
A|-3-3-3-3-4-5---------------------------------------
D|---------------------------------------------------



E|---------------------------------------------------
B|---------------------------------7-----------------
G|-5-5-5-5-5-6-7---5-5-5-5-5-6-7---7--7--------------
D|---------------------------------------10--8~------
A|---------------------------------------------------
D|---------------------------------------------------



E|---------------------------------------------------
B|-7------7-------7-------7--------------------------
G|-7-7----7-7-----7-7-----7-7------------------------
D|-----10~----10~-----10~-----10~--------------------
A|---------------------------------------------------
D|---------------------------------------------------


Riff 3:

(Guitarra 1)

E|---------------------------------------------------
B|---------------------------------------------------
G|---------------------------------------------------
D|--------------------------------12/----------------
A|--------------------------------12/----------------
D|-10-10-10-10-10-11-12-0---0-0-0-12/----------------


(4x)
 ↓  ↑  ↓  ↑  ↓  ↑  ↓  ↑   ↑ ↓ ↑ ↓

(Guitarra 2)

E|---------------------------------------------------
B|-------------------------7/------------------------
G|-5-5-5-5-5-6-7-----------7/------------------------
D|---------------0-x-0-x-0-7/------------------------
A|---------------------------------------------------
D|---------------------------------------------------


Solo:

(Guitarra 1)

E|------------------------------13-------------------
B|-13/15--15--15-15--15--15-15--15b18----------------
G|---------------------------------------------------
D|---------------------------------------------------
A|---------------------------------------------------
D|---------------------------------------------------



E|----------10----------10---------------------------
B|-------10----10-13b15----13-10---------------------
G|-12b14-------------------------12b14r12p10---------
D|---------------------------------------------------
A|---------------------------------------------------
D|---------------------------------------------------



E|---------------------------------------------------
B|---------------------------------------------------
G|-------10h12p10----10h12p10-12b14------------------
D|-12-12----------12---------------------------------
A|---------------------------------------------------
D|---------------------------------------------------



E|-------10-------------10---------------------------
B|----------13-10-13b15----13-10---------------------
G|-12b14-------------------------12p10----12b14r12p10
D|---------------------------------------------------
A|---------------------------------------------------
D|---------------------------------------------------



E|---------------------------------------------------
B|---------------------------------------------------
G|-12----10------------------------------------------
D|----12----12-10------------------------------------
A|----------------12-11-10-8-10b11r10p8----8-10-8b9--
D|--------------------------------------12-----------



E|---------------------------------------------------
B|---------------------------------------------------
G|-10-------10-------10-------10-------10-------10---
D|----10h12----10h12----10h12----10h12----10h12------
A|---------------------------------------------------
D|---------------------------------------------------



E|----------10---------------------------------------
B|-------10----13p10-10-13b15------------------------
G|-12h14---------------------------------------------
D|---------------------------------------------------
A|---------------------------------------------------
D|---------------------------------------------------



E|-15b17-15b17r15-13---------------------------------
B|-------------------x-x-----------------------------
G|-------------------x-x-12b-10----------------------
D|-------------------x-x---------12b-10--------------
A|-------------------------------------12-11-10\8-10b
D|---------------------------------------------------



E|---------------------------------------------------
B|-8/10~-----15-15-15\-------------------------------
G|---------------------------------------------------
D|-8/10~-----15-15-15\-------------------------------
A|---------------------------------------------------
D|---------------------------------------------------



E|---------------------------------------------------
B|--------------------------5------------------------
G|-----5---5h7------5---5h7---7----------------------
D|-5h7---7------5h7---7------------------------------
A|---------------------------------------------------
D|---------------------------------------------------


(Guitarra 2 - Base)

E|---------------------------------------------------
B|--3-3-x-x-x-x--3-----------------------------------
G|--2-2-x-x-x-x--2-----------------------------------
D|--0------------0-----------------------------------
A|---------------------------------------------------
D|---------------------------------------------------


(Refrão)

Final:

Riff 3 - Guitarra 1:

E|---------------------------------------------------
B|---------------------------------------------------
G|---------------------------------------------------
D|--------------------------------12-----------------
A|--------------------------------12-----------------
D|-10-10-10-10-10-11-12-0---0-0-0-12-----------------


(4x)
 ↓  ↑  ↓  ↑  ↓  ↑  ↓  ↑   ↑ ↓ ↑ ↓

Riff 3 - Guitarra 2:

E|---------------------------------------------------
B|---------------------------------------------------
G|-5-5-5-5-5-6-7-------------------------------------
D|---------------0-x-0-x-0---------------------------
A|---------------------------------------------------
D|---------------------------------------------------


Yeah!  Woo...uh huh...yeah, yeah, mommy, mommy...

Riff Final 2x:

E|---------------------------------------------------
B|---------------------------------------------13b15-
G|-12-10----10------------12-10----10----------------
D|-------12----12-10h12---------12----12-10h12-------
A|---------------------------------------------------
D|----------------------0----------------------------

Comentários 42

  • mazao13 mazao13: Postado em 23/03/2014 00:01

    muito boa!!! vídeo aula igual a musica!!!

  • lukewilkshire.lukwill lukewilkshire.lukwill: Postado em 20/03/2014 22:12

    Muito boa essa música, cifra e vídeo aula muito boas também, parabéns

  • lucas lucas: Postado em 02/01/2014 16:58

    ki bunitinho... eu aki com net d 128kb custando pra abri o google e vcs vendo video aula.

    • eric eric: Postado em 16/01/2014 17:48

      E ainda ficam reclamando do vídeo tocar fora do tempo.

  • corey23 corey23: Postado em 29/05/2013 00:02

    Mto boa a video aula cara, parabéns me ajudou bastante !Diferente dos imbecis que estão falando mau esse é um canal mto útil =P

  • ANDERSON ANDERSON: Postado em 11/04/2013 16:25

    QUE VERGONHA ESSE CARA TOCANDO A GUITARRA TODA FORA DO TEMPO...VAI ESTUDA COM O METRONOMO ANTES MEU FILHO...!!

    • Felipe Felipe: Postado em 17/04/2013 14:04

      é só vc ir e tocar no tempo fera ¬¬

  • murilols murilols: Postado em 06/10/2012 21:53

    lol, assim eu fico, so tem musica foda, eu abri aki enter sandman, dai abri joe satriani dai abri essa nao sei qual video aula ve

  • faelwarrior190 faelwarrior190: Postado em 09/07/2012 20:02

    olha a cara do Tarsios 0:55:51
    kkkkkkkkk

    • melhorqhendrix melhorqhendrix: Postado em 17/07/2012 21:36

      kkkkkkkkkkkkkkkkkkkkk mt resenha eu ri

Exibindo 10 de 42 comentários Mostrar mais ver todos »
Composição: Billy Joel / Eddie Vedder / Richard Rodgers / Stone Gossard
Esse não é o compositor? Avise-nos.
Contribuição: Vinicius Crowes Correções: jmb7 , tarsiuslima e mais 3 »
Exibir acordes »
publicidade
fechar